» » »

Beck - Devil's Haircut Tabs

Artists:  A B C D E F G H I J K L M N O P Q R S T U V W X Y Z # 

Devil's Haircut Tabs

(ver. 2) Click to play this song!
Beck
 Rating:
4/5 (4 votes)

 Devil's Haircut lessons Tabs too difficult? Try these video lessons and learn fast
 
                -------------------------------------------------------------------------------
-------------------------------------------------------------------------------

Tuning: G1 Drop-D (DADGBE)
        G2 Standard
	G3 Standard
        G4 Standard (keyboard arr. for guitar)

-|-----------------------------------|
-|-----------------------------------|
-|-----------------------------------|
-|-----------------------------------|
-|-------------3---------------3-----|
-|--0----0--5-------0----0--5--------|
  G1 riff

-|-------------------------------------------|
-|--7----7----7----7----7----7----7----7-----|
-|--7----7----7----7----7----7----7----7-----|
-|-------------------------------------------|
-|-------------------------------------------|
-|-------------------------------------------|
  G2 rhythm through most of song

-|---------------------------------------------------------------|
-|---------------------------------------------------------------|
-|--5h7----5h7----5-------7--5-----------------------------------|
-|---------------------7--------7-----5b6--5--5----5/7-----------|
-|---------------------------------8--------------------5--8-----|
-|---------------------------------------------------------------|
  G3 solo

-|-----------------------------------------------------------------------|
-|-----------------------------------------------------------------------|
-|--11----11----11--11----11----11----11----11----11--11----11----11-----|
-|-----------------------------------------------------------------------|
-|-----------------------------------------------------------------------|
-|-----------------------------------------------------------------------|
  G4 breakdown

-|-----------------------------------------------------------------------|
-|--10----10----10--10----10----10----10----10----10--10----10----10-----|
-|--11----11----11--11----11----11----11----11----11--11----11----11-----|
-|-----------------------------------------------------------------------|
-|-----------------------------------------------------------------------|
-|-----------------------------------------------------------------------|

| /  slide up
| \  slide down
| h  hammer-on
| p  pull-off
| ~  vibrato
| +  harmonic
| x  Mute note
===============================================================================
            
Submit corrections


        Devil's Haircut lessons Hard to play? Try these video lessons and learn fast Devil's Haircut lessons
        
↑ Back to top | Tablatures and chords for acoustic guitar and electric guitar, ukulele, drums are parodies/interpretations of the original songs. You may use it for private study, scholarship, research or language learning purposes only