» » »

Beatles - You Like Me Too Much Tabs

Artists:  A B C D E F G H I J K L M N O P Q R S T U V W X Y Z # 

You Like Me Too Much Tabs

(ver. 3) Click to play this song!
Beatles
 Rating:
4/5 (4 votes)

 You Like Me Too Much lessons Tabs too difficult? Try these video lessons and learn fast
 
                Gtr I (E A D G B E) - 'George Harrison - Electric Guitar'
Gtr II (E A D G B E) - 'John Lennon - Electric Guitar'


 Intro
  Freely Q=120(8=s8)        In Tempo Q=164(8=s8)
  G           Bb    D7      G
 4/4
  Gtr II
   W           H     H       H    H
|-^3--------|-^1----^2----|-^3---------||
|-^0--------|-^3----^1----|-^0---------||
|-^0--------|-^3----^2----|-^0---------||
|-^0--------|-^3----^0----|-^0---------||
|-^2--------|-^1----------|-^2---------||
|-^3--------|-------------|-^3---------||


   1st & 2nd Verses
    Am                              C               G
    Q  Q  E E E E   Q  Q  E E E E   Q  Q  E E E E   Q  Q  E E E E
||--0--0--0-0-0-0-|-0--0--0-0-0-0-|-0--0--0-0-0-0-|-3--3--3-3-3-3--|
||o-1--1--1-1-1-1-|-1--1--1-1-1-1-|-1--1--1-1-1-1-|-0--0--0-0-0-0--|
||--2--2--2-2-2-2-|-2--2--2-2-2-2-|-0--0--0-0-0-0-|-0--0--0-0-0-0--|
||--2--2--2-2-2-2-|-2--2--2-2-2-2-|-2--2--2-2-2-2-|-0--0--0-0-0-0--|
||o-0--0--0-0-0-0-|-0--0--0-0-0-0-|-3--3--3-3-3-3-|-2--2--2-2-2-2--|
||----------------|---------------|---------------|-3--3--3-3-3-3--|


  Am                              C               G
  Q  Q  E E E E   Q  Q  E E E E   Q  Q  E E E E   Q  Q  E E E E
|-0--0--0-0-0-0-|-0--0--0-0-0-0-|-0--0--0-0-0-0-|-3--3--3-3-3-3-|
|-1--1--1-1-1-1-|-1--1--1-1-1-1-|-1--1--1-1-1-1-|-0--0--0-0-0-0-|
|-2--2--2-2-2-2-|-2--2--2-2-2-2-|-0--0--0-0-0-0-|-0--0--0-0-0-0-|
|-2--2--2-2-2-2-|-2--2--2-2-2-2-|-2--2--2-2-2-2-|-0--0--0-0-0-0-|
|-0--0--0-0-0-0-|-0--0--0-0-0-0-|-3--3--3-3-3-3-|-2--2--2-2-2-2-|
|---------------|---------------|---------------|-3--3--3-3-3-3-|


  Bm                              D7
  Q  Q  E E E E   Q  Q  E E E E   Q  Q  E E E E   Q  Q  E E E E
|-2--2--2-2-2-2-|-2--2--2-2-2-2-|-2--2--2-2-2-2-|-2--2--2-2-2-2-||
|-3--3--3-3-3-3-|-3--3--3-3-3-3-|-1--1--1-1-1-1-|-1--1--1-1-1-1-||
|-2--2--2-2-2-2-|-2--2--2-2-2-2-|-2--2--2-2-2-2-|-2--2--2-2-2-2-||
|-4--4--4-4-4-4-|-4--4--4-4-4-4-|-0--0--0-0-0-0-|-0--0--0-0-0-0-||
|-2--2--2-2-2-2-|-2--2--2-2-2-2-|---------------|---------------||
|---------------|---------------|---------------|---------------||


 Chorus
                                                 1.
  $
  G               C               D7
  Q  Q  E E E E   Q  Q  E E E E   Q  Q  E E E E   Q  Q  E E E E
|-3--3--3-3-3-3-|-0--0--0-0-0-0-|-2--2--2-2-2-2-|-2--2--2-2-2-2--||
|-0--0--0-0-0-0-|-1--1--1-1-1-1-|-1--1--1-1-1-1-|-1--1--1-1-1-1-o||
|-0--0--0-0-0-0-|-0--0--0-0-0-0-|-2--2--2-2-2-2-|-2--2--2-2-2-2--||
|-0--0--0-0-0-0-|-2--2--2-2-2-2-|-0--0--0-0-0-0-|-0--0--0-0-0-0--||
|-2--2--2-2-2-2-|-3--3--3-3-3-3-|---------------|---------------o||
|-3--3--3-3-3-3-|---------------|---------------|----------------||


                  Bridge
  2.,D.S.
                   Em7
  Q  Q  E E E E    Q  Q  E E E E
|-2--2--2-2-2-2-||-0--0--0-0-0-0-|
|-1--1--1-1-1-1-||-0--0--0-0-0-0-|
|-2--2--2-2-2-2-||-0--0--0-0-0-0-|
|-0--0--0-0-0-0-||-0--0--0-0-0-0-|
|---------------||-2--2--2-2-2-2-|
|---------------||-0--0--0-0-0-0-|


                  A7
  Q  Q  E E E E   Q  Q  E E E E   Q  Q  E E E E
|-0--0--0-0-0-0-|-0--0--0-0-0-0-|-0--0--0-0-0-0-|
|-0--0--0-0-0-0-|-2--2--2-2-2-2-|-2--2--2-2-2-2-|
|-0--0--0-0-0-0-|-0--0--0-0-0-0-|-0--0--0-0-0-0-|
|-0--0--0-0-0-0-|-2--2--2-2-2-2-|-2--2--2-2-2-2-|
|-2--2--2-2-2-2-|-0--0--0-0-0-0-|-0--0--0-0-0-0-|
|-0--0--0-0-0-0-|---------------|---------------|


  Bm              A               Em7        A7                D7
  Q  Q  E E E E   Q  Q  E E E E   Q  E E +E  E Q    Q  E E +E  E Q
|-2--2--2-2-2-2-|-0--0--0-0-0-0-|-0--0-0-(0)-0-0--|-0--0-0-(0)-2-2--||
|-3--3--3-3-3-3-|-2--2--2-2-2-2-|-0--0-0-(0)-2-2--|-2--2-2-(2)-1-1--||
|-4--4--4-4-4-4-|-2--2--2-2-2-2-|-0--0-0-(0)-0-0--|-0--0-0-(0)-2-2--||
|-4--4--4-4-4-4-|-2--2--2-2-2-2-|-0--0-0-(0)-2-2--|-2--2-2-(2)-0-0--||
|-2--2--2-2-2-2-|-0--0--0-0-0-0-|-2--2-2-(2)-0-0--|-0--0-0-(0)------||
|---------------|---------------|-0--0-0-(0)------|-----------------||


 3rd & 4th Verses
  Am                              C               G
  Q  Q  E E E E   Q  Q  E E E E   Q  Q  E E E E   Q  Q  E E E E
|-0--0--0-0-0-0-|-0--0--0-0-0-0-|-0--0--0-0-0-0-|-3--3--3-3-3-3-|
|-1--1--1-1-1-1-|-1--1--1-1-1-1-|-1--1--1-1-1-1-|-0--0--0-0-0-0-|
|-2--2--2-2-2-2-|-2--2--2-2-2-2-|-0--0--0-0-0-0-|-0--0--0-0-0-0-|
|-2--2--2-2-2-2-|-2--2--2-2-2-2-|-2--2--2-2-2-2-|-0--0--0-0-0-0-|
|-0--0--0-0-0-0-|-0--0--0-0-0-0-|-3--3--3-3-3-3-|-2--2--2-2-2-2-|
|---------------|---------------|---------------|-3--3--3-3-3-3-|


  Am                              C               G
  Q  Q  E E E E   Q  Q  E E E E   Q  Q  E E E E   Q  Q  E E E E
|-0--0--0-0-0-0-|-0--0--0-0-0-0-|-0--0--0-0-0-0-|-3--3--3-3-3-3-|
|-1--1--1-1-1-1-|-1--1--1-1-1-1-|-1--1--1-1-1-1-|-0--0--0-0-0-0-|
|-2--2--2-2-2-2-|-2--2--2-2-2-2-|-0--0--0-0-0-0-|-0--0--0-0-0-0-|
|-2--2--2-2-2-2-|-2--2--2-2-2-2-|-2--2--2-2-2-2-|-0--0--0-0-0-0-|
|-0--0--0-0-0-0-|-0--0--0-0-0-0-|-3--3--3-3-3-3-|-2--2--2-2-2-2-|
|---------------|---------------|---------------|-3--3--3-3-3-3-|


  Bm7                             D7
  Q  Q  E E E E   Q  Q  E E E E   Q  Q  E E E E   Q  Q  E E E E
|-2--2--2-2-2-2-|-2--2--2-2-2-2-|-2--2--2-2-2-2-|-2--2--2-2-2-2-||
|-3--3--3-3-3-3-|-3--3--3-3-3-3-|-1--1--1-1-1-1-|-1--1--1-1-1-1-||
|-2--2--2-2-2-2-|-2--2--2-2-2-2-|-2--2--2-2-2-2-|-2--2--2-2-2-2-||
|-4--4--4-4-4-4-|-4--4--4-4-4-4-|-0--0--0-0-0-0-|-0--0--0-0-0-0-||
|-2--2--2-2-2-2-|-2--2--2-2-2-2-|---------------|---------------||
|---------------|---------------|---------------|---------------||


 Chorus
                                         To Coda
  G               C               D7
  Gtr I
  W               W               W                Q  Q  E Q   E
|---------------|---------------|----------------|----7--6-5---3-||
|---------------|---------------|----------------|---------------||
|---------------|---------------|----------------|----7--6-5---4-||
|---------------|---------------|----------------|---------------||
|---------------|---------------|----------------|---------------||
|---------------|---------------|----------------|---------------||
|
| Gtr II
| Q  Q  E E E E   Q  Q  E E E E   Q  Q  E E E E    Q  Q  E E E E
|-3--3--3-3-3-3-|-0--0--0-0-0-0-|-2--2--2-2-2-2--|-2--2--2-2-2-2-||
|-0--0--0-0-0-0-|-1--1--1-1-1-1-|-1--1--1-1-1-1--|-1--1--1-1-1-1-||
|-0--0--0-0-0-0-|-0--0--0-0-0-0-|-2--2--2-2-2-2--|-2--2--2-2-2-2-||
|-0--0--0-0-0-0-|-2--2--2-2-2-2-|-0--0--0-0-0-0--|-0--0--0-0-0-0-||
|-2--2--2-2-2-2-|-3--3--3-3-3-3-|----------------|---------------||
|-3--3--3-3-3-3-|---------------|----------------|---------------||


 Guitar/Piano Solo
  G
  +W                Q  Q  E Q   E   +W                Q  Q  E Q   E
|-(3)-------------|----7--6-5---3-|-(3)-------------|---------------|
|-----------------|---------------|-----------------|----1--3-4---5-|
|-(4)-------------|----7--6-5---4-|-(4)-------------|---------------|
|-----------------|---------------|-----------------|----2--3-4---5-|
|-----------------|---------------|-----------------|---------------|
|-----------------|---------------|-----------------|---------------|
|
|  Q   Q  E E E E   Q  Q  E E E E    Q   Q  E E E E   Q  Q  E E E E
|--3---3--3-3-3-3-|-3--3--3-3-3-3-|--3---3--3-3-3-3-|-3--3--3-3-3-3-|
|--0---0--0-0-0-0-|-0--0--0-0-0-0-|--0---0--0-0-0-0-|-0--0--0-0-0-0-|
|--0---0--0-0-0-0-|-0--0--0-0-0-0-|--0---0--0-0-0-0-|-0--0--0-0-0-0-|
|--0---0--0-0-0-0-|-0--0--0-0-0-0-|--0---0--0-0-0-0-|-0--0--0-0-0-0-|
|--2---2--2-2-2-2-|-2--2--2-2-2-2-|--2---2--2-2-2-2-|-2--2--2-2-2-2-|
|--3---3--3-3-3-3-|-3--3--3-3-3-3-|--3---3--3-3-3-3-|-3--3--3-3-3-3-|


  C                                 G
  +W                Q  Q  E Q   E   +W                Q  Q  E  Q    E
|-----------------|----7--6-5---3-|-(3)-------------|----7--8--9---10-|
|-(5)-------------|---------------|-----------------|-----------------|
|-----------------|----7--6-5---4-|-(4)-------------|----7--9-10---11-|
|-(5)-------------|---------------|-----------------|-----------------|
|-----------------|---------------|-----------------|-----------------|
|-----------------|---------------|-----------------|-----------------|
|
|  Q   Q  E E E E   Q  Q  E E E E    Q   Q  E E E E   Q  Q  E  E E  E
|--0---0--0-0-0-0-|-0--0--0-0-0-0-|--3---3--3-3-3-3-|-3--3--3--3-3--3-|
|--1---1--1-1-1-1-|-1--1--1-1-1-1-|--0---0--0-0-0-0-|-0--0--0--0-0--0-|
|--0---0--0-0-0-0-|-0--0--0-0-0-0-|--0---0--0-0-0-0-|-0--0--0--0-0--0-|
|--2---2--2-2-2-2-|-2--2--2-2-2-2-|--0---0--0-0-0-0-|-0--0--0--0-0--0-|
|--3---3--3-3-3-3-|-3--3--3-3-3-3-|--2---2--2-2-2-2-|-2--2--2--2-2--2-|
|-----------------|---------------|--3---3--3-3-3-3-|-3--3--3--3-3--3-|


                                                          D.S. al Coda
  D7
   +W                Q   Q  E Q   E   +W                W
|-(10)-------------|----10--8-7---5-|-(5)-------------|----------------||
|------------------|----------------|-----------------|----------------||
|-(11)-------------|----11--9-7---5-|-(5)-------------|----------------||
|------------------|----------------|-----------------|----------------||
|------------------|----------------|-----------------|----------------||
|------------------|----------------|-----------------|----------------||
|
|   Q   Q  E E E E   Q   Q  E E E E    Q   Q  E E E E   Q  Q  E E E E
|---2---2--2-2-2-2-|-2---2--2-2-2-2-|--2---2--2-2-2-2-|-2--2--2-2-2-2--||
|---1---1--1-1-1-1-|-1---1--1-1-1-1-|--1---1--1-1-1-1-|-1--1--1-1-1-1--||
|---2---2--2-2-2-2-|-2---2--2-2-2-2-|--2---2--2-2-2-2-|-2--2--2-2-2-2--||
|---0---0--0-0-0-0-|-0---0--0-0-0-0-|--0---0--0-0-0-0-|-0--0--0-0-0-0--||
|------------------|----------------|-----------------|----------------||
|------------------|----------------|-----------------|----------------||


                  Outro
  &
  D7               G
  Gtr II
  Q  Q  E E E E    Q  Q  E E E E
|-2--2--2-2-2-2-||-3--3--3-3-3-3-|
|-1--1--1-1-1-1-||-0--0--0-0-0-0-|
|-2--2--2-2-2-2-||-0--0--0-0-0-0-|
|-0--0--0-0-0-0-||-0--0--0-0-0-0-|
|---------------||-2--2--2-2-2-2-|
|---------------||-3--3--3-3-3-3-|


  C               D7
  Q  Q  E E E E   Q  Q  E E E E   Q  Q  E E E E
|-0--0--0-0-0-0-|-2--2--2-2-2-2-|-2--2--2-2-2-2-|
|-1--1--1-1-1-1-|-1--1--1-1-1-1-|-1--1--1-1-1-1-|
|-0--0--0-0-0-0-|-2--2--2-2-2-2-|-2--2--2-2-2-2-|
|-2--2--2-2-2-2-|-0--0--0-0-0-0-|-0--0--0-0-0-0-|
|-3--3--3-3-3-3-|---------------|---------------|
|---------------|---------------|---------------|


  G                               Bb
  Q  Q  E E E E   Q  Q  E E E E   Q  Q  E E E E
|-3--3--3-3-3-3-|-3--3--3-3-3-3-|-1--1--1-1-1-1-|
|-0--0--0-0-0-0-|-0--0--0-0-0-0-|-3--3--3-3-3-3-|
|-0--0--0-0-0-0-|-0--0--0-0-0-0-|-3--3--3-3-3-3-|
|-0--0--0-0-0-0-|-0--0--0-0-0-0-|-3--3--3-3-3-3-|
|-2--2--2-2-2-2-|-2--2--2-2-2-2-|-1--1--1-1-1-1-|
|-3--3--3-3-3-3-|-3--3--3-3-3-3-|---------------|


                H.=H
  D7              G
  Q  Q  E E E E   W          +W           +W
|-2--2--2-2-2-2-|-3--------|-(3)--------|-(3)----*|
|-1--1--1-1-1-1-|-0--------|-(0)--------|-(0)----*|
|-2--2--2-2-2-2-|-0--------|-(0)--------|-(0)----*|
|-0--0--0-0-0-0-|-0--------|-(0)--------|-(0)----*|
|---------------|-2--------|-(2)--------|-(2)----*|
|---------------|-3--------|-(3)--------|-(3)----*|
            
Submit corrections


        You Like Me Too Much lessons Hard to play? Try these video lessons and learn fast You Like Me Too Much lessons
        
↑ Back to top | Tablatures and chords for acoustic guitar and electric guitar, ukulele, drums are parodies/interpretations of the original songs. You may use it for private study, scholarship, research or language learning purposes only