» » »

Beatles - Oh Darling Tabs

Artists:  A B C D E F G H I J K L M N O P Q R S T U V W X Y Z # 

Oh Darling Tabs

(ver. 3) Click to play this song!
Beatles
 Rating:
4/5 (4 votes)

 Oh Darling  lessons Tabs too difficult? Try these video lessons and learn fast
 
                Gtr I (E A D G B E) - 'George Harrison - Electric Guitar'
Gtr II (E A D G B E) - 'John Lennon - Piano arr. for Gtr.'


                          1st Verse
  Q=111
          E°7              A
 12/8
  Gtr I (El. Gtr.)
  H.        Q.    +Q.      Q.      E E E Q.      E E E
|---------^-8-----(8)---||---------9-------------9-----|
|---------^-9-----(9)---||--------10------------10-----|
|---------^-9-----(9)---||---------9-------------9-----|
|---------^10----(10)---||--------11------------11-----|
|-----------------------||-----------------------------|
|-----------------------||-----------------------------|
|
| Gtr II (Piano arr. for Gtr.)
| H.        Q.    +Q.      E  E E  E E E E  E E  E E E
|---------^12----(12)---||-0--5-5--5-5-5-5--5-5--0-0-5-|
|---------^13----(13)---||----5-5--5-5-5-5--5-5------5-|
|---------^13----(13)---||----6-6--6-6-6-6--6-6--------|
|---------^-9-----(9)---||-----------------------------|
|---------^-7-----(7)---||-----------------------------|
|-----------------------||-------------2-0-------------|


  E
  Q.      E E E Q.      E E E
|--------12------------12------|
|--------12------------12------|
|--------13------------13------|
|--------14------------14------|
|------------------------------|
|------------------------------|
|
| E  E E  E E E E  E E  E E E
|-7--7-7--7-7-0-0--7-7--0-7-7--|
|-9--9-9--9-9------9-9----9-9--|
|-9--9-9--9-9------9-9----9-9--|
|------------------------------|
|------------------------------|
|-0----------------------------|


  F#m                         D
  Q.     E E E Q.     E E E   Q.      E E E Q.      E E E
|--------5------------5-----|--------10------------10-----|
|--------7------------7-----|--------10------------10-----|
|--------6------------6-----|--------11------------11-----|
|--------7------------7-----|--------12------------12-----|
|---------------------------|-----------------------------|
|---------------------------|-----------------------------|
|
| E  E E E E E E  E E E E E   E  E E  E E E E  E E  Q   E
|-2--5-5-5-5-5-5--5-5-0-5-5-|-0--5-5--5-5-5-5--5-5--5---0-|
|----7-7-7-7-7-5--7-7---7-7-|----7-7--7-7---7--7-7--3-----|
|----9-9-9-9-9----9-9---9-9-|----7-7--7-7---7--7-7--------|
|---------------------------|-----------------------------|
|------------0--------------|---------------0-------------|
|-2----------2-2------------|-------------2---------2-----|


         Bm           E
  Q.     E E E Q.      E E E
|--------7------------12-----|
|--------7------------12-----|
|--------7------------13-----|
|--------9------------14-----|
|----------------------------|
|----------------------------|
|
| E  E E E E E E  E E  E E E
|-0--5-5-5-5-5-4--4-4--4-4-4-|
|----7-7-7-7-7-5--5-5--5-5-5-|
|----7-7-7-7-7-7--7-7--7-7-7-|
|----------------------------|
|----------------------------|
|--------------0-------------|


         Bm           E
  Q.     E E E Q.      E E E
|--------7------------12-----|
|--------7------------12-----|
|--------7------------13-----|
|--------9------------14-----|
|----------------------------|
|----------------------------|
|
| E  E E E E E E  E E  E E E
|-0--5-5-5-5-5-4--4-4--4-4---|
|----7-7-7-7-7-5--5-5--5-5---|
|----7-7-7-7-7-7--7-7--7-7---|
|--------------------------6-|
|----------------------------|
|--------------0-------------|


         A             D               A          E7
  Q.      E E E Q.      E E E   Q.      Q.     H.
|---------9------------10-----|---------9----------------||
|--------10------------10-----|--------10----------------||
|---------9------------11-----|---------9----------------||
|--------11------------12-----|--------11----------------||
|-----------------------------|--------------------------||
|-----------------------------|--------------------------||
|
| E  E E  E E E E  E E  E E E   E  E E  E  E E Q.   Q.
|-0--0-0------0---------0-----|----0----0--0-0-----------||
|----2----------3-----------3-|-2--2-2--2----2-----------||
|----2------2------2------2---|-2----2--2----2-----------||
|--------------------0--------|--------------------------||
|---------0-------------------|-0----0--0----------------||
|-----------------------------|--------------2-0---------||


   2nd - 4th Verses
    $
       A
    Q.      E E E Q.      E E E
||----------9-------------9-----|
||o--------10------------10-----|
||----------9-------------9-----|
||---------11------------11-----|
||o-----------------------------|
||------------------------------|
|
|   E  E E  E E E E  E E  E E E
||-----5-5--5-5-5-5--5-5--5---5-|
||o----5-5--5-5-5-5--5-5--5-5-5-|
||-----6-6--6-6-6-6--6-6--6-6-6-|
||------------------------------|
||o-0---------------------------|
||----------------0-------------|


  E                             F#m
  Q.      E E E Q.      E E E   Q.     E E E Q.     E E E
|--------12------------12-----|--------5------------5------|
|--------12------------12-----|--------7------------7------|
|--------13------------13-----|--------6------------6------|
|--------14------------14-----|--------7------------7------|
|-----------------------------|----------------------------|
|-----------------------------|----------------------------|
|
| E  E E  E E E E  E E  E E E   E  E E E E E E  E E E E E
|----7-7--7-7-0----7-7--0-7-7-|----5-5-5-5-5----5-5---5-5--|
|----9-9--9-9------9-9----9-9-|----7-7-7-7------7-7---7-7--|
|----9-9--9-9------9-9----9-9-|----9-9-9-9------9-9---9-9--|
|-----------------------------|----------------------------|
|-----------------------------|----------------------------|
|-0-----------0-0-------------|-2------------2------2------|


  D
  Q.        E  E  E  Q.        E  E  E
|----------10-----------------10-------|
|----------10-----------------10-------|
|----------11-----------------11-------|
|----------12-----------------12-------|
|--------------------------------------|
|--------------------------------------|
|
| E  E S S  E  E  E  E   E  E  E  E  E
|----5-5-5-10-10-10-----10-10----10-10-|
|----7-7-7-10-10-10-----10-10----10-10-|
|----7-7-7-11-11-11-----11-11----11-11-|
|--------------------------------------|
|-5------------------------------------|
|-------------------10---------9-------|


                                                   To Coda
         Bm           E               Bm           E
  Q.     E E E Q.      E E E   Q.     E E E Q.      E E E
|--------7------------12-----|--------7------------12------|
|--------7------------12-----|--------7------------12------|
|--------7------------13-----|--------7------------13------|
|--------9------------14-----|--------9------------14------|
|----------------------------|-----------------------------|
|----------------------------|-----------------------------|
|
| E  E E E E E E  E E  E E E   E  E E E E E E  E E  E E E
|----5-5-5-5---0--4-4--0-4-4-|-0--5-5---5---4--4-4--4-4-4--|
|----7-7-7-7-7----5-5----5-5-|----7-7---7-7-5--5-5--5-5-5--|
|----7-7-7-7-7----7-7----7-7-|----7-7---7---7--7-7--7-7-7--|
|----------------------------|-----------------------------|
|----------------------------|--------------7-------7------|
|-7--------------------------|--------7---7-0-------0------|


         A             D
  Q.      E E E Q.      E E E
|---------9------------10-----|
|--------10------------10-----|
|---------9------------11-----|
|--------11------------12-----|
|-----------------------------|
|-----------------------------|
|
| E  E E  E E E E  E E  E E E
|-----------0-5-2----2--2---0-|
|-5--2----5--------3-3--3-3---|
|------2--6---6------2--2-2---|
|-7-------7---7------0--0-----|
|-0-------0---4-----------4---|
|-----------------------------|


               A                         A7
  Q.            E   E   E   Q.            E   E   E
|---------------9-------------------------9------------||
|--------------10-------------------------8------------||
|---------------9-------------------------9------------||
|--------------11------------------------11------------||
|------------------------------------------------------||
|------------------------------------------------------||
|
| S  S S S S S  S S S S S S S  S S S S S  S S S S S S
|----0-0-0-0-0--0-0-0-0---0-0--3---3---3----3-0-3---3--||
|------------------------------------------------------||
|------------------------------------------------------||
|------------------------------------------------------||
|-0---------------------0--------4---4----4-------4----||
|------------------------------------------------------||


 Bridge
  D                                     F
   e  e  e  e  e  e  e  e  e  e  e  e    e  e  e  e  e  e  e  e  e  e  e  e
|----10----------------10-------------|----13----------------13-------------|
|-------10----10----------10----10----|-------13----13----------13----13----|
|----------11----11----------11----11-|----------14----14----------14----14-|
|-12----------------12----------------|-15----------------15----------------|
|-------------------------------------|-------------------------------------|
|-------------------------------------|-------------------------------------|
|
|  E  E  E  E  E  E  E  E  E  E  E  E    E  E  E  E  E  E  E  E  E  E  E  E
|--0-14-14----14-14--0-14-14-14-14-14-|----20-20----20-20----13----13-17-17-|
|----15-15----15-15----15-15----15----|----22-22----22----------------------|
|----14-14----14-14----14-14-14-14----|----22-22----22----------------------|
|-----------0-----0-----------0-------|--3--------3--------3----------------|
|-------------------------------------|-------------------------------------|
|-------------------------------11-12-|--1--------1--------1-13--1-13-13----|


  A                                    A7
   e  e e  e  e  e  e  e  e  e  e  e    e  e  e  e  e  e  e  e e  e  e  e
|------------------------------------|------------------------------------|
|----10---------------10-------------|----10----------------10------------|
|-------9-----9-----------9-----9----|--------9-----9----------9-----9----|
|---------11----11----------11----11-|----------11----11---------11----11-|
|-12---------------12----------------|-12----------------12---------------|
|------------------------------------|------------------------------------|
|
|  E  E E  E  E  E  E  E  E  E  E  E    E  E  E  E  E  E  E  E E  E  E  E
|----21-0----21-21--0-21-----0-21-21-|----21-21--0-21-21--0-21-0--0-21--0-|
|----22------22-22----22-------22-22-|----22-------22-22----22------22----|
|----21------21-21----21-21----21-21-|----21-------21-21----21------21----|
|------------------------------------|------------------------------------|
|--0-------0-----------------------0-|--0---------------------------------|
|------------------------------------|------------------------------------|


  B
  e e  e e e e e  e e e e  e   e  e e e e e e  e  e  e  e e
|---7-------------7----------|----7------------7------------|
|------7---7--------7---7----|------7---7---------7-----7---|
|--------8---8--------8----8-|--------8---8----------8----8-|
|-9------------9-------------|-9------------9---------------|
|----------------------------|------------------------------|
|----------------------------|------------------------------|
|
| E E  E E E E E  E E E E  E   E  E E E E E E  E  E  E  E E
|-0-0-19-0---0-0-23-0---0-19-|-0-23-----0-0---19-19-19-23---|
|----------------------------|-------------------------24---|
|----------------------------|------------------------------|
|----------------------------|----------------------------1-|
|----------2----------2------|------2-2-----2---------------|
|----------------------------|------------------------------|


  E                             F
   e    e    e    e    e    e    e    e    e  e    e    e
|------12----------------------------13-------------------|
|-----------12--------12------------------13------13------|
|----------------13--------13----------------14--------14-|
|-14----------------------------15------------------------|
|---------------------------------------------------------|
|---------------------------------------------------------|
|
|  S S  S S  S S  S S  S S  S S  S E    S  E  S E    S  E
|----0----0----0----0----0----0----0-------0----0---------|
|---------------------------------------------------------|
|---------------------------------------------------------|
|--2----2----2----2----2----2----3------3-----3------3----|
|---------------------------------------------------------|
|--0----0----0----0----0----0----1------1-----1---------1-|


 1.
  E            E°7
   Q.     Q.     Q.    +Q.
|--------------^-8-----(8)-----||
|--------------^-9-----(9)----o||
|--------------^-9-----(9)-----||
|-14\----------^10----(10)-----||
|-----------------------------o||
|------------------------------||
|
|  E  E E Q.     Q.    +Q.
|--0-----------^12----(12)-----||
|--------------^13----(13)----o||
|--------------^13----(13)-----||
|--------------^-2-----(2)-----||
|--------------^-2-----(2)----o||
|------------------------------||


                               Outro
  2.
               D.S. al Coda  &
  E            E°7                     A             D
   Q.     Q.     Q.    +Q.      Q.      E E E Q.      E E E
|--------------^-8-----(8)---||---------9------------10-----|
|--------------^-9-----(9)---||--------10------------10-----|
|--------------^-9-----(9)---||---------9------------11-----|
|-14-----------^10----(10)---||--------11------------12-----|
|----------------------------||-----------------------------|
|----------------------------||-----------------------------|
|
|  E  E E Q.     Q.    +Q.      E  E E  E E E E  E E  E E E
|--------------^12----(12)---||-0--0-0------5-2----2--2-5-2-|
|--------------^13----(13)---||-2--2-2--2-2---3----3--3---3-|
|--------------^13----(13)---||-2--2-2----2---2----2--2-2-2-|
|--2-----------^-2-----(2)---||---------------0--0-0--0-----|
|--------------^-2-----(2)---||------0--0-2-4-----------4-2-|
|----------------------------||-----------------------------|


                         tempo rubato Q=105
  A      Bb7A
  Q.     Q  E +H.        +W         +E  +Q.
|--------4--5-(5)------|-(5)--------(5)-(5)----*|
|----------------------|-----------------------*|
|--------5--6-(6)------|-(6)--------(6)-(6)----*|
|----------------------|-----------------------*|
|----------------------|-----------------------*|
|----------------------|-----------------------*|
|
| E  E E Q  E +H.        +W         +E  +Q.
|-0--------------------|-----------------------*|
|-2------3--2-(2)------|-(2)--------(2)-(2)----*|
|-2---------2-(2)------|-(2)--------(2)-(2)----*|
|----------------------|-----------------------*|
|-0---------0-(0)------|-(0)--------(0)-(0)----*|
|----------------------|-----------------------*|
            
Submit corrections


        Oh Darling  lessons Hard to play? Try these video lessons and learn fast Oh Darling  lessons
        
↑ Back to top | Tablatures and chords for acoustic guitar and electric guitar, ukulele, drums are parodies/interpretations of the original songs. You may use it for private study, scholarship, research or language learning purposes only