» » »

Beatles - Not A Second Time Tabs

Artists:  A B C D E F G H I J K L M N O P Q R S T U V W X Y Z # 

Not A Second Time Tabs

(ver. 2) Click to play this song!
Beatles
 Rating:
4/5 (4 votes)

 Not A Second Time lessons Tabs too difficult? Try these video lessons and learn fast
 
                           G                   Em                    D                   D7
      3 2 0 0 0 3          0 2 2 0 0 0          x x 0 2 3 2          x x 0 2 1 2

          Am7                  Bm7                  Am                   Am6
      x 0 2 0 1 0          x 2 4 2 3 2          x 0 2 2 1 0          x 0 2 2 1 2

          Bm
      x 2 4 4 3 2



Gtr I (E A D G B E) - 'George Harrison - Electric Guitar'
Gtr II (E A D G B E) - 'John Lennon - Acoustic Guitar'


   1st, 2nd, 3rd & 4th Verses
    Q=120
    $
    G               Em                 G
   4/4
    Gtr II (Ac. Gtr.)
    Q  Q  E E E E   Q  E   S S Q  Q    Q  E E E E E E
    |  |  | | | |   |  |   | | |  |    |  | | | | |
    /  /  / / / /   /  /   / / /  /    /  / / / / /

    Gtr I (El. Gtr.)
    Q  Q  Q   Q     Q  S S E   Q  Q    Q  Q   Q   Q
||-----3------3---|----7-7-7------7--|----3-------3---|
||o----3------3---|----8-8-8------8--|----3-------3---|
||-----4------4---|----9-9-9------9--|----4-------4---|
||-----5------5---|----9-9-9------9--|----5-------5---|
||o---------------|----7-7-7------7--|----------------|
||----------------|------------------|----------------|


                                   1.
  Em               D                G                D7
  Q  E E E E E E   Q  E E E E E E   Q  E E E E E E   Q  E E +E E E E
  |  | | | | |     |  | | | | |     |  | | | | |     |  | |  | | |
  /  / / / / /     /  / / / / /     /  / / / / /     /  / /  / / /

  Q  E E Q   Q     Q  E E Q   Q     Q  E E Q   Q     Q  E E  E E E E
|----7-7-----7---|----5-5-----5---|----3-3-----3---|----5-5----5-5----||
|----8-8-----8---|----7-7-----7---|----3-3-----3---|----7-7----7-7---o||
|----9-9-----9---|----7-7-----7---|----4-4-----4---|----5-5----5-5----||
|----9-9-----9---|----7-7-----7---|----5-5-----5---|----7-7----7-7----||
|----7-7-----7---|----5-5-----5---|----------------|----5-5----5-5---o||
|----------------|----------------|----------------|------------------||


                                      Bridge
  2.
  Am7              D7                  Am7
  Q  E E E E E E   Q  E S S E E E E    Q  E E E E E E
  |  | | | | |     |  | | | | | |      |  | | | | |
  /  / / / / /     /  / / / / / /      /  / / / / /

  Q  E E Q   Q     Q  E S S E E E E    Q  E E E E E E
|------5-----5---|----5-5-5---5-5---||----5-5---5-5---|
|------5-----5---|----7-7-7---7-7---||----5-5---5-5---|
|------5-----5---|----5-5-5---5-5---||----5-5---5-5---|
|------5-----5---|----7-7-7---7-7---||----5-5---5-5---|
|----------------|----5-5-5---5-5---||----------------|
|----------------|------------------||----------------|


  Bm7              G                  Em                 Am
  Q  E E E E E E   Q  E   E E E E E   Q  E   E E E E E   Q  E E E E E E
  |  | | | | |     |  |   | | | |     |  |   | | | |     |  | | | | |
  /  / / / / /     /  /   / / / /     /  /   / / / /     /  / / / / /

  Q  E E E E E E   Q  S S E E E E E   Q  S S E E E E E   Q  E E Q   Q
|----7-7---7-7---|----3-3-3-3---3---|----7-7-7---7-7---|----5-5-----5-----|
|----7-7---7-7---|----3-3-3-3---3---|----8-8-8---8-8---|----5-5-----5-----|
|----7-7---7-7---|----4-4-4-4---4---|----9-9-9---9-9---|----5-5-----5-----|
|----7-7---7-7---|----5-5-5-5---5---|----9-9-9---9-9---|----7-7-----7-----|
|----------------|------------------|----7-7-7---7-7---|------------------|
|----------------|------------------|------------------|------------------|


  Am6Am            Bm               D7               Em
  Q  E E E E E E   Q  E E E E E E   Q  E E E E E E   Q  E E E E E E
  |  | | | | |     |  | | | | | |   |  | | | | | |   |  | | | | | |
  /  / / / / /     /  / / / / / /   /  / / / / / /   /  / / / / / /

  Q  E E Q   Q     Q  E E E E E E   Q  E E E E E E   Q  E E E E E E
|----5-5-----5---|----7-7---7-7---|----5-5---5-5---|----7-7---7-7-7-|
|----5-5-----5---|----7-7---7-7---|----7-7---7-7---|----8-8---8-8-8-|
|----5-5-----5---|----7-7---7-7---|----5-5---5-5---|----9-9---9-9-9-|
|----7-7-----7---|----9-9---9-9---|----7-7---7-7---|----9-9---9-9-9-|
|----------------|----------------|----5-5---5-5---|----7-7---7-7-7-|
|----------------|----------------|----------------|----------------|


                Piano Solo
    To Coda
  Em             Am7              Bm7              G
  E E Q  H       Q  E E E E E E   Q  E E E E E E   Q  E E E E E E
  |              |  | | | | |     |  | | | | |     |  | | | | |
  /              /  / / / / /     /  / / / / /     /  / / / / /

  E E Q  H       Q  E E Q   Q     Q  E E E E E E   Q  E E Q   Q
|-7-----------||----5-5-----5---|----7-7---7-7---|----3-3-----3---|
|-8-----------||----5-5-----5---|----7-7---7-7---|----3-3-----3---|
|-9-----------||----5-5-----5---|----7-7---7-7---|----4-4-----4---|
|-9-----------||----5-5-----5---|----7-7---7-7---|----5-5-----5---|
|-7-----------||----------------|----------------|----------------|
|-------------||----------------|----------------|----------------|


  Em               Am                                Bm
  Q  E E E E E E   Q  E E E E E E   Q  E E E E E E   E E E E +E E E E
  |  | | | | |     |  | | | | |     |  | | | | |     | | | |  | | |
  /  / / / / /     /  / / / / /     /  / / / / /     / / / /  / / /

  Q  E E Q   Q     Q  E E Q   Q     Q  E E Q   Q     Q   E E  E E E E
|----7-7-----7---|----5-5-----5---|----5-5-----5---|-----7-7----7-7---|
|----8-8-----8---|----5-5-----5---|----5-5-----5---|-----7-7----7-7---|
|----9-9-----9---|----5-5-----5---|----5-5-----5---|-----7-7----7-7---|
|----9-9-----9---|----7-7-----7---|----7-7-----7---|-----9-9----9-9---|
|----7-7-----7---|----------------|----------------|------------------|
|----------------|----------------|----------------|------------------|


                                                  Outro
                                 D.S. al Coda   &
  D7               Em                              G
  Q  E E E E E E   Q  E E E E E E   E E Q  H       Q  E E E E E E
  |  | | | | | |   |  | | | | | |   |              |  | | | | | |
  /  / / / / / /   /  / / / / / /   /              /  / / / / / /

  Q  E E E E E E   Q  E E E E E E   E E Q  H       Q  E E Q   Q
|----5-5---5-5---|----7-7---7-7-7-|-7-----------||----3-3-----3---|
|----7-7---7-7---|----8-8---8-8-8-|-8-----------||----3-3-----3---|
|----5-5---5-5---|----9-9---9-9-9-|-9-----------||----4-4-----4---|
|----7-7---7-7---|----9-9---9-9-9-|-9-----------||----5-5-----5---|
|----5-5---5-5---|----7-7---7-7-7-|-7-----------||----------------|
|----------------|----------------|-------------||----------------|


  Em               G                Em                 G
  Q  E E E E E E   Q  E E E E E E   Q  E   E E E E E   Q  E E E E E E
  |  | | | | | |   |  | | | | | |   |  |   | | | | |   |  | | | | | |
  /  / / / / / /   /  / / / / / /   /  /   / / / / /   /  / / / / / /

  Q  E E E E E E   Q  E E Q   Q     Q  S S E E E E E   Q  E E Q   Q
|----7-7---7-7---|----3-3-----3---|----7-7-7---7-7---|----3-3-----3---|
|----8-8---8-8---|----3-3-----3---|----8-8-8---8-8---|----3-3-----3---|
|----9-9---9-9---|----4-4-----4---|----9-9-9---9-9---|----4-4-----4---|
|----9-9---9-9---|----5-5-----5---|----9-9-9---9-9---|----5-5-----5---|
|----7-7---7-7---|----------------|----7-7-7---7-7---|----------------|
|----------------|----------------|------------------|----------------|


  Em               G                Em               G
  Q  E E E E E E   Q  E E E E E E   Q  E E E E E E   Q  E E E E E E
  |  | | | | | |   |  | | | | | |   |  | | | | | |   |  | | | | | |
  /  / / / / / /   /  / / / / / /   /  / / / / / /   /  / / / / / /

  Q  E E E E E E   Q  E E Q   Q     Q  E E E E E E   Q  E E Q   Q
|----7-7---7-7---|----3-3-----3---|----7-7---7-7---|----3-3-----3---*|
|----8-8---8-8---|----3-3-----3---|----8-8---8-8---|----3-3-----3---*|
|----9-9---9-9---|----4-4-----4---|----9-9---9-9---|----4-4-----4---*|
|----9-9---9-9---|----5-5-----5---|----9-9---9-9---|----5-5-----5---*|
|----7-7---7-7---|----------------|----7-7---7-7---|----------------*|
|----------------|----------------|----------------|----------------*|
            
Submit corrections


        Not A Second Time lessons Hard to play? Try these video lessons and learn fast Not A Second Time lessons
        
↑ Back to top | Tablatures and chords for acoustic guitar and electric guitar, ukulele, drums are parodies/interpretations of the original songs. You may use it for private study, scholarship, research or language learning purposes only