» » »

Beatles - Carry That Weight Bass

Artists:  A B C D E F G H I J K L M N O P Q R S T U V W X Y Z # 

Carry That Weight Bass

(ver. 2) Click to play this song!
Beatles
 Rating:
4/5 (4 votes)

 Carry That Weight lessons Tabs too difficult? Try these video lessons and learn fast
 
                          Fifteen takes of the basic track were recorded 
          on July 2nd, along with Golden Slumbers as one 
          song. George on bass, Paul on piano and guide 
          vocal and Ringo on drums; John didn't participate 
          as he was in hospital. The chorus was sung by Paul, 
          George and Ringo in unison and recorded with other 
          overdubs the following day.






  Boy, you're going to carry that weight,
  Carry that weight a long time
  Boy, you're going to carry that weight
  Carry that weight a long time

  I never give you my pillow
  I only send you my invitations
  And in the middle of the celebrations
  I break down

  Boy, you're going to carry that weight
  Carry that weight a long time
  Boy, you're going to carry that weight
  Carry that weight a long time






    CHORUS

  G|5---------------5--------------|-------------------------------|
  D|------------5---------------5--|5---------------5--------------|
  A|----3---5/7---------3---5/7----|----------2-5-------------2-5--|
  E|-------------------------------|----3---3-----------3---3------|
    Boy,                you're      carry   that
                            gonna               weight




  G|-------------------------------|5---------------5--------------|
  D|5---------------5--------------|----------2-5-------------2-5--|
  A|------------5---------------5--|----3---3-----------3---3------|
  E|----3---5/7---------3---5/7----|-------------------------------|
    carry   that            a   long    time
                weight




  G|5---------------5--------------|-------------------------------|
  D|------------5---------------5--|5---------------5--------------|
  A|----3---5/7---------3---5/7----|----------2-5-------------2-5--|
  E|-------------------------------|----3---3-----------3---3------|
    Boy,                you're      carry   that
                            gonna               weight




  G|-------------------------------|-------------------------------|
  D|5---------------5--------------|-------------------------------|
  A|----5-----2---------------2-5--|3-------3-------2-------2---0--|
  E|--------3-----------3---3------|-------------------------------|
    carry   that            a   long    time
                weight




  G|-------------------------------|-------------------------------|
  D|5/7----------------------------|7------------------------------|
  A|-------------------------------|------------5---------------7--|
  E|-------------------------------|-------------------------------|





  G|-------------------------------|----------------------------5--|
  D|5------------------------------|--------------------5---5/7----|
  A|-------------------------------|3-------5---7------------------|
  E|-------------------------------|-------------------------------|





  G|-------------------------------|-------------------------------|
  D|3-----------------------3-3-3--|--------------------4---5---6--|
  A|-------------------------------|2-H-3---5---6---7--------------|
  E|-------------------------------|-------------------------------|





  G|-------------------------------|
  D|7------------------------------|
  A|------------0------------------|
  E|-------------------------------|




    VERSE

  G|-------------------------------|-------------------------------|
  D|5/7----------------------------|7---------------------------7--|
  A|-------------------------------|------------5-----------5/7----|
  E|-------------------------------|-------------------------------|
        I   never   give you my     pillow




  G|-------------------------------|----------------------------5--|
  D|5------------------------------|--------------------5---5/7----|
  A|-------------------------------|3-------5---7------------------|
  E|-------------------------------|-------------------------------|
        I   only    send you my     invitation




  G|-------------------------------|-------------------------------|
  D|3---------------3--------------|--------------------4---5---6--|
  A|-------------------------------|2---3---5---6---7--------------|
  E|-------------------------------|-------------------------------|
        And in  the middle  of  the celebrations                I




  G|-------------------------------|-------------------------------|
  D|7------------------------------|--------5-----------5-4-4-2----|
  A|------------0------------------|-------------------------------|
  E|-------------------------------|-------------------------------|
    break       down




    CHORUS

  G|5---------------5--------------|-------------------------------|
  D|------------5---------------5--|5---------------5--------------|
  A|----3---5/7---------3---5/7----|----------2-5-------------2-5--|
  E|-------------------------------|----3---3-----------3---3------|
    Boy,                you're      carry   that
                            gonna               weight




  G|-------------------------------|----------------5--------------|
  D|5---------------5--------------|5-----------5---------------5--|
  A|------------5---------------5--|----3---5/7---------3---5/7----|
  E|----3---5/7---------3---5/7----|-------------------------------|
    carry   that            a   long    time
                weight




  G|5---------------5--------------|-------------------------------|
  D|-------------------------------|5---------------5--------------|
  A|----3---5/7-3-------3---5/7-3--|------------5---------------5--|
  E|-------------------------------|----3---5/7---------3---5/7----|
    Boy,                you're      carry   that
                            gonna               weight




  G|-------------------------------|-------------------------------|
  D|5---------------5--------------|-------------------------------|
  A|------------5---------------5--|3-----------2-----------2-/----|
  E|----3---5/7---------3---5/7----|-------------------------------|
    carry   that            a   long    time
                weight




  G|-------------------------------|-------------------------------|
  D|------------7-----------\------|-------------------------------|
  A|0------------------------------|3-----------2------------------|
  E|-------------------------------|-------------------------------|





  G|-------------------------------|
  D|------------7------------------|
  A|0------------------------------|
  E|-------------------------------|            
Submit corrections


        Carry That Weight lessons Hard to play? Try these video lessons and learn fast Carry That Weight lessons
        
↑ Back to top | Tablatures and chords for acoustic guitar and electric guitar, ukulele, drums are parodies/interpretations of the original songs. You may use it for private study, scholarship, research or language learning purposes only