» » »

Beatles - Blue Jay Way Bass

Artists:  A B C D E F G H I J K L M N O P Q R S T U V W X Y Z # 

Blue Jay Way Bass

(ver. 3) Click to play this song!
Beatles
 Rating:
4/5 (4 votes)

 Blue Jay Way lessons Tabs too difficult? Try these video lessons and learn fast
 
                Gtr I (E A D G) - 'Paul McCartney - Bass'

 Intro
  Q=100
 4/4
  Gtr I
  W          W          W
|----------|----------|------|
|----------|----------|------|
|----------|----------|------|
|----------|----------|------|


  W          W          W          W
|----------|----------|----------|------|
|----------|----------|----------|------|
|----------|----------|----------|------|
|----------|----------|----------|------|


              1st - 3rd Verses
  W            Q  Q  Q  Q    Q  Q  Q  Q    Q  Q  Q  Q
|----------||--------------|-------------|-------------|
|----------||o-------------|-------------|-------------|
|----------||o-3--3--3--3--|-3--3--3--3--|-3--3--3--3--|
|----------||--------------|-------------|-------------|


                                            Q=20
  Q  Q  Q  Q    Q  Q  Q  Q    Q  Q  Q  Q    W
|-------------|-------------|-------------|------||
|-------------|-------------|-------------|------||
|-3--3--3--3--|-3--3--3--3--|-3--3--3--3--|-3----||
|-------------|-------------|-------------|------||


 Chorus
  1.,2.(8=s8)
  Q  Q  Q  Q    Q  Q  Q  Q    Q  Q  Q  Q    Q  Q  Q  Q
|-------------|-------------|-------------|-------------|
|-------------|-------------|-------------|-------------|
|-3--3--3--3--|-3--3--3--3--|-3--3--3--3--|-3--3--3--3--|
|-------------|-------------|-------------|-------------|


  |-3-| |3|
  Q Q Q Q H    Q  Q  Q  Q    Q  Q  Q  Q    W
|---2-4-5-4--|-------------|-------------|------|
|------------|-------------|-------------|------|
|-3----------|-3--3--3--3--|-3--3--3--3--|-3----|
|------------|-------------|-------------|------|


                  Chorus
  Q=100       3.   Q=120(8=s8)
  W         3x     Q  Q  Q  Q    Q  Q  Q  Q    Q  Q  Q  Q    Q  Q  Q  Q
|-----------||-||--------------|-------------|-------------|---------------|
|----------o||-||o-------------|-------------|-------------|---------------|
|-3--------o||-||o-3--3--3--3--|-3--3--3--3--|-3--3--3--3--|-3--3--3--3----|
|-----------||-||--------------|-------------|-------------|---------------|


  1.,2.,3.
 2/4       4/4
  E E E E   Q  Q  Q  Q    Q  Q  Q  Q    Q  Q  Q  Q   4x
|---2-4-5-|-4--4--------|-------------|--------------||
|---------|-------------|-------------|-------------o||
|-3-------|-------3--3--|-3--3--3--3--|-3--3--3--3--o||
|---------|-------------|-------------|--------------||


                              Outro
  4.
  Q  Q  Q  Q    Q  Q  Q  Q     Q  Q  Q  Q    Q  Q  Q  Q
|-------------|-------------||-------------|-------------|
|-------------|-------------||-------------|-------------|
|-3--3--3--3--|-3--3--3--3--||-3--3--3--3--|-3--3--3--3--|
|-------------|-------------||-------------|-------------|


  Q  Q  Q  Q    Q  Q  Q  E E   E E Q  Q  Q    Q  Q  Q  E E
|-------------|--------------|--------------|--------------|
|-------------|--------------|--------------|--------------|
|-3--3--3--3--|-3--3--3--3---|-3---3--3--3--|-3--3--3--3---|
|-------------|------------3-|---3----------|------------3-|


  E E Q  Q  Q    E E Q  Q  Q    Q  Q  Q  Q    Q  Q  Q  Q
|--------------|--------------|-------------|-------------|
|--------------|--------------|-------------|-------------|
|-3---3--3--3--|-3---3--3--3--|-3--3--3--3--|-3--3--3--3--|
|---3----------|---3----------|-------------|-------------|


                                         Q=80
  Q  Q  H      +W           +W           +W
|------------|------------|------------|--------*|
|------------|------------|------------|--------*|
|-3--3--3----|-(3)--------|-(3)--------|-(3)----*|
|------------|------------|------------|--------*|
            
Submit corrections


        Blue Jay Way lessons Hard to play? Try these video lessons and learn fast Blue Jay Way lessons
        
↑ Back to top | Tablatures and chords for acoustic guitar and electric guitar, ukulele, drums are parodies/interpretations of the original songs. You may use it for private study, scholarship, research or language learning purposes only