» » »

Beatles - Bad Boy Bass

Artists:  A B C D E F G H I J K L M N O P Q R S T U V W X Y Z # 

Bad Boy Bass

(ver. 2) Click to play this song!
Beatles
 Rating:
4/5 (4 votes)

 Bad Boy lessons Tabs too difficult? Try these video lessons and learn fast
 
                Gtr I (E A D G) - 'Paul McCartney - Bass'


 Intro
  Q=142
 4/4
  Gtr I
   Q   Q   E  E  +E   E   W           Q   Q   E  E  +E   E
|-----------------------|----------|-----------------------|
|-10--10--10-10-(10)-10-|----------|-10--10--10-10-(10)-10-|
|-----------------------|----------|-----------------------|
|-----------------------|----------|-----------------------|


                     1st - 3rd Verses
                  $
  Q  E  E E E E E      E  E E E  E  E  E E
|-----------9-9-9-||--------8-9------------|
|------11---------||o-10-10--------------8-|
|-----------------||o-----------10-10-10---|
|-----------------||-----------------------|


   E  E E E  E  E  E E    E  E E E  E  E  E E
|-------8-9------------|-------8-9------------|
|-10-10--------------8-|-10-10--------------8-|
|-----------10-10-10---|-----------10-10-10---|
|----------------------|----------------------|


   E  E E E  E  E  E E    E  E E E  E  E  E E
|-------8-9------------|-------8-9------------|
|-10-10--------------8-|-10-10--------------8-|
|-----------10-10-10---|-----------10-10-10---|
|----------------------|----------------------|


   E  E E E  E  E  E E    E  E E E  E  E  E E
|-------8-9------------|-------8-9------------|
|-10-10--------------8-|-10-10--------------8-|
|-----------10-10-10---|-----------10-10-10---|
|----------------------|----------------------|


   E  E E E  E  E  E E   E E  E  E  E  E  E E
|-------8-9------------|----------------------|
|-10-10-----10-10-10---|-----------10-10-10---|
|--------------------7-|-8-8-11-12----------7-|
|----------------------|----------------------|


  E E  E  E  E  E  E E   E E  E  E  E  E  E E
|----------------------|----------------------|
|-----------10-10-10---|-----------10-10-10---|
|-8-8-11-12----------7-|-8-8-11-12----------7-|
|----------------------|----------------------|


  E E  E  E  E  E  E E    E  E E E  E  E  E E
|----------------------|-------8-9------------|
|-----------10-10-10-9-|-10-10--------------9-|
|-8-8-11-12------------|-----------10-10-10---|
|----------------------|----------------------|


   E  E E E  E  E  E E    E  E E E  E  E  E E
|-------8-9------------|-------8-9------------|
|-10-10--------------9-|-10-10--------------9-|
|-----------10-10-10---|-----------10-10-10---|
|----------------------|----------------------|


                                                                  To Coda
   E  E E E  E  E  E E    Q.    E  +Q    Q    Q.   E +Q   Q     E E Q  H
|-------8-9------------|--------------------|----------------|--------------|
|-10-10----------------|--------------------|----------------|-10-----------|
|-----------10-10-10---|-10----10-(10)--10--|-8----8-(8)--8--|--------------|
|----------------------|--------------------|----------------|--------------|


                                  Guitar Solo
  1.              2.
  H    E E E E     H    E E E E     E  E E E  E  E  E E
|---------------||--------------||-------8-9------------|
|--------5-5-5-o||--------5-5-5-||-10-10-----10-10-10-8-|
|--------------o||--------------||----------------------|
|---------------||--------------||----------------------|


   E  E E E  E  E E  E    E  E E E  E  E  E E
|-------8-9------------|-------8-9------------|
|-10-10-----10-10-8----|-10-10-----10-10-10-8-|
|-------------------10-|----------------------|
|----------------------|----------------------|


   E  E E E E E E E   E E  E  E  E  E  E E
|-------8-9---------|----------------------|
|-10-10-----8-8-7---|-----------10-10-10---|
|-----------------9-|-8-8-11-12----------7-|
|-------------------|----------------------|


  E E  E  E  E  E  E  E    E  E E E  E  E E E
|-----------------------|-------8-9-----------|
|-----------10-10-10----|-10-10-----------8-9-|
|-8-8-11-12----------10-|-----------10-10-----|
|-----------------------|---------------------|


  H    Q   Q     +W           Q.   E +Q   Q     E E Q  H
|-------------|-------------|----------------|--------------|
|---------10--|-(10)--------|----------------|-10-----------|
|-------------|-------------|-8----8-(8)--8--|--------------|
|-------------|-------------|----------------|--------------|


                     Outro
                                    Q=60
      D.S. al Coda &
  E E E E E E E E     H    Q   Q     +W
|------------------||-------------|---------*|
|---5-5-5-5-5-5-5--||---------10--|-(10)----*|
|------------------||-------------|---------*|
|------------------||-------------|---------*|            
Submit corrections


        Bad Boy lessons Hard to play? Try these video lessons and learn fast Bad Boy lessons
        
↑ Back to top | Tablatures and chords for acoustic guitar and electric guitar, ukulele, drums are parodies/interpretations of the original songs. You may use it for private study, scholarship, research or language learning purposes only