» » »

Beatles - Baby Youre A Rich Man Tabs

Artists:  A B C D E F G H I J K L M N O P Q R S T U V W X Y Z # 

Baby Youre A Rich Man Tabs

(ver. 2) Click to play this song!
Beatles
 Rating:
4/5 (4 votes)

 Baby Youre A Rich Man lessons Tabs too difficult? Try these video lessons and learn fast
 
                Gtr I (E A D G B E) - 'George Harrison - Electric Guitar'
Gtr II (E A D G B E) - 'John Lennon - Piano arr. for Guitar '
Gtr III (E A D G B E) - 'Paul McCartney - Electric Piano arr. for Guitar'


 Intro
  Q=103
 4/4
  Gtr I (El. Gtr.)
  E S S E S S E S S E S S
|-------------------------|
|-------------------------|
|-------------------------|
|-------------------------|
|-------------------------|
|-x-x-x-x-x-x-x-x-x-x-x-x-|
|
| Gtr II (Piano arr. for Gtr.)
| E E   E E   E E   E E
|-------------------------|
|-3-----------------------|
|-4-----------------------|
|-5-----------------------|
|-------------------------|
|-3-3---3-3---3-3---3-3---|


  E S S E S S E S S E S S   E S S E S S E S S E S S
|-------------------------|-------------------------|
|-------------------------|-------------------------|
|-------------------------|-------------------------|
|-------------------------|-------------------------|
|-------------------------|-------------------------|
|-x-x-x-x-x-x-x-x-x-x-x-x-|-x-x-x-x-x-x-x-x-x-x-x-x-|
|
| E E   E E   E E   E E     E E   E E   E E   E E
|-------------------------|-3-----3-----------------|
|-5-----------------------|-3-----3-----------------|
|-5-----------------------|-4-----4-----------------|
|-5-----------------------|-------------------------|
|-------------------------|-------------------------|
|-3-3---3-3---3-3---3-3---|-3-3---3-3---3-3---3-3---|


  E S S E S S E S S E S S   E S S E S S E S S E S S
|-------------------------|-------------------------|
|-------------------------|-------------------------|
|-------------------------|-------------------------|
|-------------------------|-------------------------|
|-------------------------|-------------------------|
|-x-x-x-x-x-x-x-x-x-x-x-x-|-x-x-x-x-x-x-x-x-x-x-x-x-|
|
| E E   E E   E E   E E     E E   E E   E E   E E
|-3-----3-----------------|-1-----1-----1-------3---|
|-5-----5-----------------|-3-----3-----3-------5---|
|-5-----5-----------------|-4-----4-----4-------5---|
|-------------------------|-------------------------|
|-------------------------|-------------------------|
|-3-3---3-3---3-3---3-3---|-3-3---3-3---3-3---3-3---|


  E S S E S S E S S E S S   E S S E S S S S S S S S E
|-------------------------|---------------------------|
|-------------------------|---------------------------|
|-------------------------|---------------------------|
|-------------------------|---------------------------|
|-------------------------|---------------------------|
|-x-x-x-x-x-x-x-x-x-x-x-x-|-x-x-x-x-x-x-x-x-x-x-x-x---|
|
| E E   E E   E E   E E     E E   E E   E   E   E   E
|---3-----3---3-----------|-1-------1-----------------|
|---5-----5---5-----------|-3-------3-----------------|
|---5-----5---5-----------|-4-------4-----------------|
|-------------------------|---------------------------|
|-------------------------|---------------------------|
|-3-3---3-3---3-3---3-3---|-3-3---3-3---3---3---3---3-|


                             1st - 3rd Verses
                          $
  E S S E S S E S S S S E     E S S E S S E S S E S S
|-------------------------||--------------------------|
|-------------------------||o-------------------------|
|-------------------------||--------------------------|
|-------------------------||--------------------------|
|-------------------------||o-------------------------|
|-x-x-x-x-x-x-x-x-x-3-3---||--x-x-x-x-x-x-x-x-x-x-x-x-|
|
| E E   E E   E E   E   E     E E   E E   E E   E E
|-3-----3-------3---------||--3-----------------------|
|-5-----5-------5---------||o-3-----------------------|
|-5-----5-------5---------||--4-----------------------|
|-------------------------||--------------------------|
|-------------------------||o-------------------------|
|-3-3---3-3---3-3---3---3-||--3-3---3-3---3-3---3-3---|


  E S S E S S E S S E S S   E S S E S S E S S E E
|-------------------------|-----------------------|
|-------------------------|-----------------------|
|-------------------------|-----------------------|
|-------------------------|-----------------------|
|-------------------------|-----------------------|
|-x-x-x-x-x-x-x-x-x-x-x-x-|-x-x-x-x-x-x-3-3-3-3-3-|
|
| E E   E E   E E   E E     E E   E E   E E   E E
|-3-----------------------|-3-----1-----1-----1---|
|-5-----------------------|-3-----3-----3-----3---|
|-5-----------------------|-4-----4-----4-----4---|
|-------------------------|-----------------------|
|-------------------------|-----------------------|
|-3-3---3-3---3-3---3-3---|---3-----3-----3-----3-|


  E S S E S S E S S E S S   E S S E S S E S S E E
|-------------------------|-----------------------|
|-------------------------|-----------------------|
|-------------------------|-----------------------|
|-------------------------|-----------------------|
|-------------------------|-----------------------|
|-x-x-x-x-x-x-x-x-x-x-x-x-|-x-x-x-x-x-x-3-3-3-3-3-|
|
| E E   E E   E E   E E     E E   E E   E E   E E
|-3-----------------------|-3-----3---------------|
|-3-----------------------|-6-----6---------------|
|-4-----------------------|-5-----5---------------|
|-------------------------|-7-----7---------------|
|-------------------------|-----------------------|
|-3-3---3-3---3-3---3-3---|-3-3---3-3---3-3---3-3-|


  E S S E S S E S S E S S   W              E S S E S S E S S E S S
|-------------------------|--------------|--------------------------|
|-------------------------|--------------|--------------------------|
|-------------------------|--------------|--------------------------|
|-------------------------|--------------|--------------------------|
|-------------------------|-3------------|--------------------------|
|-1-1-1-1-1-1-3-3-3-3-3-3-|--------------|-3-3-3-3-3-3-3-3-3-3-3-3--|
|
| E E   E E   E E   E E     H    E E E E   E E   E E   E E   E E
|-1-----1-----3-----3-----|-3------------|-3------------------------|
|-1-----1-----3-----3-----|-5------------|-3------------------------|
|-2-----2-----4-----4-----|-5------------|-4------------------------|
|-------------------------|--------------|--------------------------|
|-------------------------|-3----3-3-3-3-|--------------------------|
|-1-1---1-1---3-3---3-3---|--------------|-3-3---3-3---3-3---3-3----|


                                                     1.
  E S S E S S E S S E S S   E S S E S S E S S E S S   W
|-------------------------|-------------------------|------------------||
|-------------------------|-------------------------|-----------------o||
|-------------------------|-------------------------|------------------||
|-------------------------|-------------------------|------------------||
|-------------------------|-------------------------|-3---------------o||
|-3-3-3-3-3-3-3-3-3-3-3-3-|-1-1-1-1-1-1-3-3-3-3-3-3-|------------------||
|
| E E   E E   E E   E E     E E   E E   E E   E E     W
|-3-----------1-----1-----|-1-----------3-----------|-3----------------||
|-3-----------1-----1-----|-1-----------3-----------|-5---------------o||
|-4-----------2-----2-----|-2-----------4-----------|-5----------------||
|-------------------------|-------------------------|------------------||
|-------------------------|-------------------------|-3---------------o||
|-3-3---3-3---3-3---3-3---|-1-1---1-1---3-3---3-3---|------------------||
|
| Gtr III (El. Piano arr. for Gtr.)
| W                         W                         Q  E E E E E E
|-------------------------|-------------------------|------------------||
|-------------------------|-------------------------|------5-5-5-5-5--o||
|-------------------------|-------------------------|------0-0-0-0-0---||
|-------------------------|-------------------------|------------------||
|-------------------------|-------------------------|-----------------o||
|-------------------------|-------------------------|------------------||


                 Chorus
  2.,D.S.
  W               E S S E E E S S E E   E S S E E E S S E E
|--------------||---------------------|---------------------|
|--------------||---------------------|---------------------|
|--------------||---------------------|---------------------|
|--------------||---------------------|-5-5-5-7-5-5-5-5-7-5-|
|-3------------||-5-5-5-7-5-5-5-5-7-5-|-3---------3---------|
|--------------||-3---------3---------|---------------------|
|
| W               E E   E E E E   E E   E E   E E E E   E E
|-3------------||-3-----3---3-----3---|-3-----3---3-----3---|
|-5------------||-3-----3---3-----3---|-5-----5---5-----5---|
|-5------------||-4-----4---4-----4---|-5-----5---5-----5---|
|--------------||---------------------|---------------------|
|-3------------||---------------------|-3-3---3-3-3-3---3-3-|
|--------------||-3-3---3-3-3-3---3-3-|---------------------|
|
| Gtr III
| H    E E E E    W                     W
|------3-------||---------------------|---------------------|
|--------5-5-5-||---------------------|---------------------|
|----------5-5-||---------------------|---------------------|
|--------------||---------------------|---------------------|
|--------------||---------------------|---------------------|
|--------------||---------------------|---------------------|


  Gtr I
  E S S E E E S S E E   E S S E E E E S S S S   E S S E E E E E E
|---------------------|-----------------------|-------------------|
|---------------------|-----------------------|-------------------|
|---------------------|-----------3-----------|-------------------|
|---------------------|-5-5-5-7-5---5-7-5-7-5-|-------------------|
|-5-5-5-7-5-5-5-5-7-5-|-3---------------------|-1-1-1-1-1-2-2-2-2-|
|-3---------3---------|-----------------------|-------------------|
|
| Gtr II
| E E   E E E E   E E   E E   E E E E E   E     E E   E E E E E E
|-3-----3---3-----3---|-3-----3---3---3-------|-3-----3---1---1---|
|-3-----3---3-----3---|-5-----5---5---5-------|-3-----6---3---3---|
|-4-----4---4-----4---|-5-----5---5---5-------|-3-----7---4---4---|
|---------------------|-----------------------|-------------------|
|---------------------|-3-3---3-3-3-3-3---3---|---1-----1---2---2-|
|-3-3---3-3-3-3---3-3-|-----------------------|-------------------|


  E S S E E E S S E E   E S S E E E S S E E   E S S E E E S S E E
|---------------------|---------------------|---------------------|
|---------------------|---------------------|---------------------|
|---------------------|---------------------|---------------------|
|-5-5-5-7-5-5-5-5-7-5-|---------------------|-5-5-5-7-5-5-5-5-7-5-|
|-3---------3---------|-5-5-5-7-5-5-5-5-7-5-|-3---------3---------|
|---------------------|-3---------3---------|---------------------|
|
| E E   E E E E   E E   E E   E E E E   E E   E E   E E E E   E E
|-3-----3---3-----3---|-1-----3---1-----3---|-3-----3---3-----3---|
|-5-----5---5-----5---|-3-----3---3-----6---|-5-----5---5-----5---|
|-5-----5---5-----5---|-4-----4---4-----7---|-5-----5---5-----5---|
|---------------------|---------------------|---------------------|
|-3-3---3-3-3-3---3-3-|---2-----2---2-----2-|-3-3---3-3-3-3---3-3-|
|---------------------|---------------------|---------------------|


                                                         To Coda
  E S S E E E S S E E   E S S E E E S S Q     E S S E E E S S Q
|---------------------|---------------------|---------------------|
|---------------------|-----------------3---|---------------------|
|---------------------|-----------------3---|---------------------|
|---------------------|-5-5-5-7-5-5-5-5-----|-----------------3---|
|-5-5-5-7-5-5-5-5-7-5-|-3---------3---------|-5-5-5-7-x-5-5-5-----|
|-3---------3---------|---------------------|-3-3-3-----3-3-3-----|
|
| E E   E E E E   E E   E E   E E E E   E E   E E   E E E E   E E
|-3-----3---3-----3---|-3-----3---3-----3---|-3-----3---3-----3---|
|-3-----3---3-----3---|-5-----5---5-----5---|-3-----3---3-----3---|
|-4-----4---4-----4---|-5-----5---5-----5---|-4-----4---4-----4---|
|---------------------|---------------------|---------------------|
|---------------------|-3-3---3-3-3-3---3-3-|---------------------|
|-3-3---3-3-3-3---3-3-|---------------------|-3-3---3-3-3-3---3-3-|


                                   Outro
   D.S. al Coda &
  W                W                E S S E S S E S S E S S
|---------------||--------------||---------------------------|
|---------------||--------------||o--------------------------|
|---------------||--------------||---------------------------|
|---------------||--------------||---------------------------|
|-3-------------||-3------------||o--------------------------|
|---------------||--------------||--3-3-3-3-3-3-3-3-3-3-3-3--|
|
| H    E E E E     H    E E E E     E E   E E   E E   E E
|-3----8-8-8-8--||-3----3-3-3-3-||--3-----3-----3-----3------|
|-5----8-8-8-8--||-5----5-5-5-5-||o-3-----3-----3-----3------|
|-5----9-9-9-9--||-5----5-5-5-5-||--4-----4-----4-----4------|
|---------------||--------------||---------------------------|
|-3-------------||-3----3-3-3-3-||o--------------------------|
|---------------||--------------||--3-3---3-3---3-3---3-3----|


  E S S E S S E S S E S S   E S S E S S E S S E S S
|-------------------------|-------------------------|
|-------------------------|-------------------------|
|-------------------------|-------------------------|
|-------------------------|-------------------------|
|-3-3-3-3-3-3-3-3-3-3-3-3-|-------------------------|
|-------------------------|-3-3-3-3-3-3-3-3-3-3-3-3-|
|
| E E   E E   E E   E E     E E   E E   E E   E E
|-3-----3-----3-----3-----|-3-----3-----3-----3-----|
|-5-----5-----5-----5-----|-3-----3-----3-----3-----|
|-5-----5-----5-----5-----|-4-----4-----4-----4-----|
|-------------------------|-------------------------|
|-3-3---3-3---3-3---3-3---|-------------------------|
|-------------------------|-3-3---3-3---3-3---3-3---|


  E S S E S S E S S E S S   3x
|---------------------------||
|--------------------------o||
|---------------------------||
|---------------------------||
|-3-3-3-3-3-3-3-3-3-3-3-3--o||
|---------------------------||
|
| E E   E E   E E   E E     3x
|-3-----3-----3-----3-------||
|-5-----5-----5-----5------o||
|-5-----5-----5-----5-------||
|---------------------------||
|-3-3---3-3---3-3---3-3----o||
|---------------------------||
            
Submit corrections


        Baby Youre A Rich Man lessons Hard to play? Try these video lessons and learn fast Baby Youre A Rich Man lessons
        
↑ Back to top | Tablatures and chords for acoustic guitar and electric guitar, ukulele, drums are parodies/interpretations of the original songs. You may use it for private study, scholarship, research or language learning purposes only