» » »

Beatles - Another Girl Tabs

Artists:  A B C D E F G H I J K L M N O P Q R S T U V W X Y Z # 

Another Girl Tabs

(ver. 2) Click to play this song!
Beatles
 Rating:
4/5 (4 votes)

 Another Girl lessons Tabs too difficult? Try these video lessons and learn fast
 
                           A                   D7                    G                   E7
      x 0 2 2 2 0          x x 0 2 1 2          3 2 0 0 0 3          0 2 0 1 0 0

           C                   G7
      x 3 2 0 1 0          3 2 0 0 0 1



Gtr I (E A D G B E) - 'George Harrison - Overdriven Gtr.'
Gtr II (E A D G B E) - 'George Harrison - Clean El. Gtr.'
Gtr III (E A D G B E) - 'John Lennon - Ac. Gtr.'


              Chorus
  Q=175(8=s8)
  A            A                          D7
 4/4
  Gtr III
  W            Q  E     E  E E     E  E   Q  E E E E E E
               |  |     |  | |     |  |   |  | | | | | |
               /  /     /  / /     /  /   /  / / / / / /

  Gtr I
  W            Q  E    +E  E E    +Q      q  q   H
|----------||---------------------------|----------------|
|----------||o--------------------------|-5--5-----------|
|----------||-----5pb6r(5)---7pb9r(7)---|----------------|
|----------||--------------7------------|----------------|
|----------||o--------------------------|----------------|
|----------||---------------------------|----------------|
|
| Gtr II
| W            Q  Q        Q       Q      Q  Q   Q   Q
|----------||-----5----------------5----|----5-------5---|
|----------||o----5----------------5----|----7-------7---|
|----------||-----7----------------7----|----5-------5---|
|----------||-----5----------------5----|----7-------7---|
|----------||o----7----------------7----|----5-------5---|
|----------||-----5----------------5----|----------------|


                                         1st, 2nd & 4th Verses
                                       $
  A                     D7                A                G
  Q  E     E  E E E E   Q  E E E E E E    Q  E E E E E E   E E Q  Q  Q
  |  |     |  | | | |   |  | | | | | |    |  | | | | | |   | | |  |  |
  /  /     /  / / / /   /  / / / / / /    /  / / / / / /   / / /  /  /

  Q  E    +E  E E Q     H      H          W                W
|---------------------|----------------||----------------|--------------|
|---------------------|----------------||----------------|--------------|
|----5pb6r(5)---7-----|-5--------------||----------------|--------------|
|-------------7-------|----------------||----------------|--------------|
|---------------------|----------------||----------------|--------------|
|---------------------|----------------||----------------|--------------|
|
| Q  Q        Q   Q     Q  Q   Q   Q      Q  Q   Q   Q     Q   Q  Q  Q
|----5------------5---|----5-------5---||----5-------5---|-----3-----3--|
|----5------------5---|----7-------7---||----5-------5---|-----3-----3--|
|----7------------7---|----5-------5---||----7-------7---|-----4-----4--|
|----5------------5---|----7-------7---||----5-------5---|-----5-----5--|
|----7------------7---|----5-------5---||----7-------7---|-----5-----5--|
|----5------------5---|----------------||----5-------5---|-----3-----3--|


  A                D7                         A                G
  Q  E E E E E E   E E Q  Q        Q          Q  E E E E E E   E E Q  Q  Q
  |  | | | | | |   | | |  |        |          |  | | | | | |   | | |  |  |
  /  / / / / / /   / / /  /        /          /  / / / / / /   / / /  /  /

  W                H      E    +E  E    +E    Q  Q   H         W
|----------------|--------------------------|----------------|--------------|
|----------------|--------7pb8r(7)----------|----------------|--------------|
|----------------|-----------------7pb9r(7)-|-5--------------|--------------|
|----------------|--------------------------|----------------|--------------|
|----------------|--------------------------|----------------|--------------|
|----------------|--------------------------|----------------|--------------|
|
| Q  Q   Q   Q     Q   Q  Q        Q          Q  Q   Q   Q     Q   Q  Q  Q
|----5-------5---|-----5-----------5--------|----5-------5---|-----3-----3--|
|----5-------5---|-----7-----------7--------|----5-------5---|-----3-----3--|
|----7-------7---|-----5-----------5--------|----7-------7---|-----4-----4--|
|----5-------5---|-----7-----------7--------|----5-------5---|-----5-----5--|
|----7-------7---|-----5-----------5--------|----7-------7---|-----5-----5--|
|----5-------5---|--------------------------|----5-------5---|-----3-----3--|


  A                D7
  Q  E E E E E E   E E Q  Q        Q
  |  | | | | | |   | | |  |        |
  /  / / / / / /   / / /  /        /

  Gtr I
  W                Q   Q  E    +E  E    +E
|----------------|-----5--------------------|
|----------------|--------7pb8r(7)----------|
|----------------|-----------------7pb9r(7)-|
|----------------|--------------------------|
|----------------|--------------------------|
|----------------|--------------------------|
|
| Gtr II
| Q  Q   Q   Q     Q   Q  Q        Q
|----5-------5---|-----5-----------5--------|
|----5-------5---|-----7-----------7--------|
|----7-------7---|-----5-----------5--------|
|----5-------5---|-----7-----------7--------|
|----7-------7---|-----5-----------5--------|
|----5-------5---|--------------------------|


  Q  E E +E E E E   Q  E E +E E E E
  |  | |  | | | |   |  | |  | | | |
  /  / /  / / / /   /  / /  / / / /

  Q  Q    H         W
|-----------------|-----------------|
|-----------------|-----------------|
|-5---------------|-----------------|
|-----------------|-----------------|
|-----------------|-----------------|
|-----------------|-----------------|
|
| Q  Q    Q   Q     Q  Q    Q   Q
|----5--------5---|----5--------5---|
|----7--------7---|----7--------7---|
|----5--------5---|----5--------5---|
|----7--------7---|----7--------7---|
|----5--------5---|----5--------5---|
|-----------------|-----------------|


                                  Chorus
                    E7             A                          D7
  Q  E E +E E E E   Q  Q  H        Q  E     E  E E     E  E   Q  E E E E E E
  |  | |  | | | |   |              |  |     |  | |     |  |   |  | | | | | |
  /  / /  / / / /   /              /  /     /  / /     /  /   /  / / / / / /

  Gtr I
  H       H         W              Q  E    +E  E E    +Q      q  q   H
|-----------------|-------------||--------------------------|----------------|
|-----------------|------------o||--------------------------|-5--5-----------|
|-----------------|-------------||----5pb6r(5)---7pb9r(7)---|----------------|
|---------0-------|-------------||-7-----------7------------|--------7-------|
|-----------------|------------o||--------------------------|----------------|
|-----------------|-------------||--------------------------|----------------|
|
| Gtr II
| Q  Q    Q   Q     Q  Q  H        Q  Q        Q       Q      Q  Q   Q   Q
|----5--------5---|-7-----------||----5----------------5----|----5-------5---|
|----7--------7---|-9----------o||----5----------------5----|----7-------7---|
|----5--------5---|-7-----------||----7----------------7----|----5-------5---|
|----7--------7---|-9-----------||----5----------------5----|----7-------7---|
|----5--------5---|-7----------o||----7----------------7----|----5-------5---|
|-----------------|-------------||----5----------------5----|----------------|


                                          To Coda
  A                            D7
   Q   E E E     E  E     E    Q    E  E E E E E
   |   | | |     |  |     |    |    |  | | | | |
   /   / / /     /  /     /    /    /  / / / / /

  +Q   Q   E    +E  E    +E    Q    H.
|------5---------------------|--------------------||
|----------7pb8r(7)----------|--------------------||
|-------------------7pb9r(7)-|-5b6----------------||
|-(7)------------------------|------7-------------||
|----------------------------|--------------------||
|----------------------------|--------------------||
|
|  Q   Q   Q        Q          Q    Q    Q   Q
|------5------------5--------|------5--------5----||
|------5------------5--------|------7--------7----||
|------7------------7--------|------5--------5----||
|------5------------5--------|------7--------7----||
|------7------------7--------|------5--------5----||
|------5------------5--------|--------------------||


 Bridge
  C                G
  Q  E E E E E E   Q  E E E E E E
  |  | | | | | |   |  | | | | | |
  /  / / / / / /   /  / / / / / /

  W                W
|----------------|-----------------|
|----------------|-----------------|
|----------------|-----------------|
|----------------|-----------------|
|----------------|-----------------|
|----------------|-----------------|
|
| Q  Q   E E Q     Q  Q   E E Q
|----3-----3-----|----3-----3------|
|----5-----5-----|----3-----3------|
|----5-----5-----|----4-----4------|
|----5-----5-----|----3-----3------|
|----3-----3-----|----5-----5------|
|----------------|----3-----3------|


  C                G                C
  Q  E E E E E E   Q  E E E E E E   Q  E E E E E E
  |  | | | | | |   |  | | | | | |   |  | | | | | |
  /  / / / / / /   /  / / / / / /   /  / / / / / /

  Gtr II
  Q  Q   E E Q     Q  Q   E E Q     Q  Q   E E Q
|----3-----3-----|----3-----3-----|----3-----3-----|
|----5-----5-----|----3-----3-----|----5-----5-----|
|----5-----5-----|----4-----4-----|----5-----5-----|
|----5-----5-----|----3-----3-----|----5-----5-----|
|----3-----3-----|----5-----5-----|----3-----3-----|
|----------------|----3-----3-----|----------------|


  E7               A
  Q  E E E E E E    Q         E E  E E E E
  |  | | | | | |    |         | |  | | | |
  /  / / / / / /    /         / /  / / / /

  Gtr I
  W                 E     +Q.      H
|----------------|----------------17-------|
|----------------|-15b17-(15)--------------|
|----------------|-------------------------|
|----------------|-------------------------|
|----------------|-------------------------|
|----------------|-------------------------|
|
| Gtr II
| Q  Q   E E Q      Q         Q    E E Q
|----7-----7-----|------------5------5-----|
|----9-----9-----|------------5------5-----|
|----7-----7-----|------------6------6-----|
|----9-----9-----|------------7------7-----|
|----7-----7-----|------------7------7-----|
|----------------|------------5------5-----|


                                  3rd Verse
  E7                               A
   Q      Q      Q           Q      Q   E E E E E E
   |      |      |           |      |   | | | | | |
   /      /      /           /      /   / / / / / /

   Q      Q      E      +E   Q      E E Q   H
|-------------------------------||------------------|
|-15b17--15b17--15pb17r(15)-13--||------------------|
|-------------------------------||-14---------------|
|-------------------------------||------------------|
|-------------------------------||------------------|
|-------------------------------||------------------|
|
|  Q      Q      Q           Q      Q   Q   Q   Q
|---------7------------------7--||------5-------5---|
|---------9------------------9--||------5-------5---|
|---------7------------------7--||------7-------7---|
|---------9------------------9--||------5-------5---|
|---------7------------------7--||------7-------7---|
|-------------------------------||------5-------5---|


  G                A                D7                         A
  Q  E E E E E E   Q  E E E E E E   Q  E E E     E  E     E    Q  E E E E E E
  |  | | | | | |   |  | | | | | |   |  | | |     |  |     |    |  | | | | | |
  /  / / / / / /   /  / / / / / /   /  / / /     /  /     /    /  / / / / / /

  W                W                H      E    +E  E    +E    Q  Q   H
|----------------|----------------|--------------------------|----------------|
|----------------|----------------|--------7pb8r(7)----------|----------------|
|----------------|----------------|-----------------7pb9r(7)-|-5--------------|
|----------------|----------------|--------------------------|----------------|
|----------------|----------------|--------------------------|----------------|
|----------------|----------------|--------------------------|----------------|
|
| Q  Q   Q   Q     Q  Q   Q   Q     Q  Q   Q        Q          Q  Q   Q   Q
|----3-------3---|----5-------5---|----5------------5--------|----5-------5---|
|----3-------3---|----5-------5---|----7------------7--------|----5-------5---|
|----4-------4---|----7-------7---|----5------------5--------|----7-------7---|
|----5-------5---|----5-------5---|----7------------7--------|----5-------5---|
|----5-------5---|----7-------7---|----5------------5--------|----7-------7---|
|----3-------3---|----5-------5---|--------------------------|----5-------5---|


  G                A                D7
  Q  E E E E E E   Q  E E E E E E   Q  E E E     E  E     E    Q  E E E E E E
  |  | | | | | |   |  | | | | | |   |  | | |     |  |     |    |  | | | | | |
  /  / / / / / /   /  / / / / / /   /  / / /     /  /     /    /  / / / / / /

  W                W                Q  Q   E    +E  E    +E    Q  Q   H
|----------------|----------------|----5---------------------|----------------|
|----------------|----------------|--------7pb8r(7)----------|----------------|
|----------------|----------------|-----------------7pb9r(7)-|-5--------------|
|----------------|----------------|--------------------------|----------------|
|----------------|----------------|--------------------------|----------------|
|----------------|----------------|--------------------------|----------------|
|
| Q  Q   Q   Q     Q  Q   Q   Q     Q  Q   Q        Q          Q  Q   Q   Q
|----3-------3---|----5-------5---|----5------------5--------|----5-------5---|
|----3-------3---|----5-------5---|----7------------7--------|----7-------7---|
|----4-------4---|----7-------7---|----5------------5--------|----5-------5---|
|----5-------5---|----5-------5---|----7------------7--------|----7-------7---|
|----5-------5---|----7-------7---|----5------------5--------|----5-------5---|
|----3-------3---|----5-------5---|--------------------------|----------------|


                                                  Chorus
                                     E7            A
  Q  E E E E E E   Q  E E +E E E E   Q  Q  H       Q  E     E  E E     E  E
  |  | | | | | |   |  | |  | | | |   |             |  |     |  | |     |  |
  /  / / / / / /   /  / /  / / / /   /             /  /     /  / /     /  /

  W                W                 W             Q  E    +E  E E    +Q
|----------------|-----------------|------------||--------------------------|
|----------------|-----------------|------------||--------------------------|
|----------------|-----------------|------------||----5pb6r(5)---7pb9r(7)---|
|----------------|-----------------|------------||-7-----------7------------|
|----------------|-----------------|------------||--------------------------|
|----------------|-----------------|------------||--------------------------|
|
| Q  Q   Q   Q     Q  Q    Q   Q     Q  Q  H       Q  Q        Q       Q
|----5-------5---|----5--------5---|-7----------||----5----------------5----|
|----7-------7---|----7--------7---|-9----------||----5----------------5----|
|----5-------5---|----5--------5---|-7----------||----7----------------7----|
|----7-------7---|----7--------7---|-9----------||----5----------------5----|
|----5-------5---|----5--------5---|-7----------||----7----------------7----|
|----------------|-----------------|------------||----5----------------5----|


  D7               A
  Q  E E E E E E    Q   E E E     E  E     E
  |  | | | | | |    |   | | |     |  |     |
  /  / / / / / /    /   / / /     /  /     /

  q  q   H         +Q   Q   E    +E  E    +E
|----------------|------5---------------------|
|-5--5-----------|----------7pb8r(7)----------|
|----------------|-------------------7pb9r(7)-|
|--------7-------|-(7)------------------------|
|----------------|----------------------------|
|----------------|----------------------------|
|
| Q  Q   Q   Q      Q   Q   Q        Q
|----5-------5---|------5------------5--------|
|----7-------7---|------5------------5--------|
|----5-------5---|------7------------7--------|
|----7-------7---|------5------------5--------|
|----5-------5---|------7------------7--------|
|----------------|------5------------5--------|


                      Bridge
  D7                   C
  Q    E  E E E E E    Q  E E E E E E
  |    |  | | | | |    |  | | | | | |
  /    /  / / / / /    /  / / / / / /

  Q    H.              W
|-------------------||----------------|
|-------------------||----------------|
|-5b6---------------||----------------|
|------7------------||----------------|
|-------------------||----------------|
|-------------------||----------------|
|
| Q    Q    Q   Q      Q  Q   E E Q
|------5--------5---||----3-----3-----|
|------7--------7---||----5-----5-----|
|------5--------5---||----5-----5-----|
|------7--------7---||----5-----5-----|
|------5--------5---||----3-----3-----|
|-------------------||----------------|


  G                C                G
  Q  E E E E E E   Q  E E E E E E   Q  E E E E E E
  |  | | | | | |   |  | | | | | |   |  | | | | | |
  /  / / / / / /   /  / / / / / /   /  / / / / / /

  Gtr II
  Q  Q   E E Q     Q  Q   E E Q     Q  Q   E E Q
|----3-----3-----|----3-----3-----|----3-----3-----|
|----3-----3-----|----5-----5-----|----3-----3-----|
|----4-----4-----|----5-----5-----|----4-----4-----|
|----3-----3-----|----5-----5-----|----3-----3-----|
|----5-----5-----|----3-----3-----|----5-----5-----|
|----3-----3-----|----------------|----3-----3-----|


  C                E7               A
  Q  E E E E E E   Q  E E E E E E    Q         E E  E E E E
  |  | | | | | |   |  | | | | | |    |         | |  | | | |
  /  / / / / / /   /  / / / / / /    /         / /  / / / /

  Gtr I
  W                W                 E     +Q.      H
|----------------|----------------|----------------17-------|
|----------------|----------------|-15b17-(15)--------------|
|----------------|----------------|-------------------------|
|----------------|----------------|-------------------------|
|----------------|----------------|-------------------------|
|----------------|----------------|-------------------------|
|
| Gtr II
| Q  Q   E E Q     Q  Q   E E Q      Q         Q    E E Q
|----3-----3-----|----7-----7-----|------------5------5-----|
|----5-----5-----|----9-----9-----|------------5------5-----|
|----5-----5-----|----7-----7-----|------------6------6-----|
|----5-----5-----|----9-----9-----|------------7------7-----|
|----3-----3-----|----7-----7-----|------------7------7-----|
|----------------|----------------|------------5------5-----|


                                  Outro
                   D.S. al Coda &
  E7                               A
   Q      Q      Q           Q     Q  E     E  E E     E  E
   |      |      |           |     |  |     |  | |     |  |
   /      /      /           /     /  /     /  / /     /  /

   Q      Q      E      +E   Q     Q  E    +E  E E    +Q
|-------------------------------||--------------------------|
|-15b17--15b17--15pb17r(15)-13--||--------------------------|
|-------------------------------||----5pb6r(5)---7pb9r(7)---|
|-------------------------------||-------------7------------|
|-------------------------------||--------------------------|
|-------------------------------||--------------------------|
|
|  Q      Q      Q           Q     Q  Q        Q       Q
|---------7------------------7--||----5----------------5----|
|---------9------------------9--||----5----------------5----|
|---------7------------------7--||----7----------------7----|
|---------9------------------9--||----5----------------5----|
|---------7------------------7--||----7----------------7----|
|-------------------------------||----5----------------5----|


                       Q=175
  D7                     A
  Q   E     E  E E E E    W
  |   |     |  | | | |    |
  /   /     /  / / / /    /

  E E E    +E  H         +E  E    +E  E Q    Q
|----------------------|--------------------------|
|----------------------|--------------------------|
|-5---5pb7r(5)---------|-----5pb7r(5)---5b7--7b9--|
|--------------7-------|-(7)----------7-----------|
|----------------------|--------------------------|
|----------------------|--------------------------|
|
| Q   Q        Q   Q      W
|-----5------------5---|--5-----------------------|
|-----7------------7---|--5-----------------------|
|-----5------------5---|--6-----------------------|
|-----7------------7---|--5-----------------------|
|-----5------------5---|--7-----------------------|
|----------------------|--5-----------------------|


  +W                             +W                +W
   |                              |                 |
   /                              /                 /

                                            ~~~~~~~~~~~
   E    +E  Q  E E    +E  E      +E  E +Q   H      +W
|--------------5---------------|-----------------|--------*|
|----------------7pb9r(7)------|-----------------|--------*|
|--5pb7r(5)---------------7pb9r|=(7)-5-(5)-------|--------*|
|-----------7------------------|------------7----|-(7)----*|
|------------------------------|-----------------|--------*|
|------------------------------|-----------------|--------*|
|
| +W                             +W                +W
|-(5)--------------------------|-(5)-------------|-(5)----*|
|-(5)--------------------------|-(5)-------------|-(5)----*|
|-(6)--------------------------|-(6)-------------|-(6)----*|
|-(5)--------------------------|-(5)-------------|-(5)----*|
|-(7)--------------------------|-(7)-------------|-(7)----*|
|-(5)--------------------------|-(5)-------------|-(5)----*|
            
Submit corrections


        Another Girl lessons Hard to play? Try these video lessons and learn fast Another Girl lessons
        
↑ Back to top | Tablatures and chords for acoustic guitar and electric guitar, ukulele, drums are parodies/interpretations of the original songs. You may use it for private study, scholarship, research or language learning purposes only