» » »

Beatles - All Together Now Tabs

Artists:  A B C D E F G H I J K L M N O P Q R S T U V W X Y Z # 

All Together Now Tabs

(ver. 3) Click to play this song!
Beatles
 Rating:
4/5 (4 votes)

 All Together Now lessons Tabs too difficult? Try these video lessons and learn fast
 
                          F#m                   G                   D7                    C
      2 4 4 2 2 2          3 5 5 4 3 3          x 5 4 5 3 x          x 3 5 5 5 x



Gtr I (E A D G B E) - 'John Lennon - Acoustic Guitar '
Gtr II (E A D G B E) - 'George Harrison - Acoustic Guitar w/ capo 5th fret'
Gtr III (E A D G B E) - 'Applause'

 Intro
  Q=165(8=s8)
          F#m  G
 4/4
  Gtr I (Ac. Gtr.)
  H    Q  Q    Q  Q  Q  E E   Q  Q  Q  Q
          |    |  |  |  | |   |  |  |  |
          /    /  /  /  / /   /  /  /  /

  Gtr II (Ac. Gtr. w/ capo 5th fret)
  W            W              W
|------------|--------------|--------------|
|------------|--------------|--------------|
|------------|--------------|--------------|
|------------|--------------|--------------|
|------------|--------------|--------------|
|------------|--------------|--------------|


  G
  Q  E E Q  Q    Q  Q  Q  Q    Q  E E Q  E E   Q  Q  Q  E E
  |  | | |  |    |  |  |  |    |  | | |  | |   |  |  |  | |
  /  / / /  /    /  /  /  /    /  / / /  / /   /  /  /  / /

  W              W             W               W
|--------------|-------------|---------------|--------------|
|--------------|-------------|---------------|--------------|
|--------------|-------------|---------------|--------------|
|--------------|-------------|---------------|--------------|
|--------------|-------------|---------------|--------------|
|--------------|-------------|---------------|--------------|


                                 1st - 3rd Verses
                              $
  G                               G
  Q  Q  E E Q    Q  Q  Q  E E     Q  E E Q  Q     Q  E E Q  Q
  |  |  | | |    |  |  |  | |     |  | | |  |     |  | | |  |
  /  /  / / /    /  /  /  / /     /  / / /  /     /  / / /  /

  W              W                Q  E E Q  E E   Q  E E Q  E E
|--------------|--------------||--2--2-2-2--2-2-|-2--2-2-2--2-2-|
|--------------|--------------||o-3--3-3-3--3-3-|-3--3-3-3--3-3-|
|--------------|--------------||--2--2-2-2--2-2-|-2--2-2-2--2-2-|
|--------------|--------------||--0--0-0-0--0-0-|-0--0-0-0--0-0-|
|--------------|--------------||o---------------|---------------|
|--------------|--------------||----------------|---------------|


  D7                              G                         D7
  Q  Q   Q  Q     Q  Q   Q  Q     Q  Q   Q  Q     Q  Q   Q  Q
  |  |   |  |     |  |   |  |     |  |   |  |     |  |   |  |
  /  /   /  /     /  /   /  /     /  /   /  /     /  /   /  /

  Q  E E Q  E E   Q  E E Q  E E   Q  E E Q  E E   Q  E E Q  Q
|-0--0-0-0--0-0-|-0--0-0-0--0-0-|-2--2-2-2--2-2-|-2--2-2-2--0--|
|-2--2-2-2--2-2-|-2--2-2-2--2-2-|-3--3-3-3--3-3-|-3--3-3-3--2--|
|-2--2-2-2--2-2-|-2--2-2-2--2-2-|-2--2-2-2--2-2-|-2--2-2-2--2--|
|-2--2-2-2--2-2-|-2--2-2-2--2-2-|-0--0-0-0--0-0-|-0--0-0-0--2--|
|-0--0-0-0--0-0-|-0--0-0-0--0-0-|---------------|-----------0--|
|---------------|---------------|---------------|--------------|


                                                  Bridge
                 1.               2.
        To Coda                                 $$
             G                     G               C
   Q   Q  Q  Q    Q  Q  Q  Q       E E Q  Q  Q     Q  Q  Q  Q    Q  Q  E E Q
   |   |  |  |    |  |  |  |       | | |  |  |     |  |  |  |    |  |  | | |
   /   /  /  /    /  /  /  /       / / /  /  /     /  /  /  /    /  /  / / /

  Gtr II
  +Q   Q  Q  Q    H     Q  E E     E E Q  Q  Q     Q  Q  Q  Q    Q  Q  E E Q
|-(0)--0--0--2--|------------2--||-2-2-2--2--2--||-3--3--3--3--|-3--3--3-3-3--|
|-(2)--2--2--3--|------------3-o||-3-3-3--3--3--||-0--0--0--0--|-0--0--0-0-0--|
|-(2)--2--2--2--|------------2--||-2-2-2--2--2--||-0--0--0--0--|-0--0--0-0-0--|
|-(2)--2--2--0--|------------0--||-0-0-0--0--0--||-0--0--0--0--|-0--0--0-0-0--|
|-(0)--0--0-----|--------------o||--------------||-2--2--2--2--|-2--2--2-2-2--|
|---------------|---------------||--------------||-3--3--3--3--|-3--3--3-3-3--|


  G                               C
  Q  Q   Q  Q     Q  Q   Q  Q     Q  Q  Q  Q    Q  Q  E E Q
  |  |   |  |     |  |   |  |     |  |  |  |    |  |  | | |
  /  /   /  /     /  /   /  /     /  /  /  /    /  /  / / /

  Q  E E Q  E E   Q  E E Q  E E   Q  Q  Q  Q    Q  Q  E E Q
|-2--2-2-2--2-2-|-2--2-2-2--2-2-|-3--3--3--3--|-3--3--3-3-3--|
|-3--3-3-3--3-3-|-3--3-3-3--3-3-|-0--0--0--0--|-0--0--0-0-0--|
|-2--2-2-2--2-2-|-2--2-2-2--2-2-|-0--0--0--0--|-0--0--0-0-0--|
|-0--0-0-0--0-0-|-0--0-0-0--0-0-|-0--0--0--0--|-0--0--0-0-0--|
|---------------|---------------|-2--2--2--2--|-2--2--2-2-2--|
|---------------|---------------|-3--3--3--3--|-3--3--3-3-3--|


                                           To Dbl. Coda
  D7
  Q  Q  Q  Q    Q  Q  Q  Q    Q  Q  Q  Q    Q  Q  Q  Q
  |  |  |  |    |  |  |  |    |  |  |  |    |  |  |  |
  /  /  /  /    /  /  /  /    /  /  /  /    /  /  /  /

  Q  Q  Q  Q    Q  Q  Q  Q    Q  Q  Q  Q    Q  Q  Q  Q
|-0--0--0--0--|-0--0--0--0--|-0--0--0--0--|-0--0--0--0--||
|-2--2--2--2--|-2--2--2--2--|-2--2--2--2--|-2--2--2--2--||
|-2--2--2--2--|-2--2--2--2--|-2--2--2--2--|-2--2--2--2--||
|-2--2--2--2--|-2--2--2--2--|-2--2--2--2--|-2--2--2--2--||
|-0--0--0--0--|-0--0--0--0--|-0--0--0--0--|-0--0--0--0--||
|-------------|-------------|-------------|-------------||


 Chorus
  G
  Q  Q   Q  Q     Q  Q   Q  Q     Q  Q   Q  Q     Q  Q   Q  Q
  |  |   |  |     |  |   |  |     |  |   |  |     |  |   |  |
  /  /   /  /     /  /   /  /     /  /   /  /     /  /   /  /

  Q  E E Q  E E   Q  E E Q  E E   Q  E E Q  E E   Q  E E Q  E E
|-2--2-2-2--2-2-|-2--2-2-2--2-2-|-2--2-2-2--2-2-|-2--2-2-2--2-2-|
|-3--3-3-3--3-3-|-3--3-3-3--3-3-|-3--3-3-3--3-3-|-3--3-3-3--3-3-|
|-2--2-2-2--2-2-|-2--2-2-2--2-2-|-2--2-2-2--2-2-|-2--2-2-2--2-2-|
|-0--0-0-0--0-0-|-0--0-0-0--0-0-|-0--0-0-0--0-0-|-0--0-0-0--0-0-|
|---------------|---------------|---------------|---------------|
|---------------|---------------|---------------|---------------|


                                                       D.S. al Coda
  D7                                G
  Q  Q   E E Q     Q  Q   E E Q     Q  Q   Q  Q     E E Q   Q  Q
  |  |   | | |     |  |   | | |     |  |   |  |     | | |   |  |
  /  /   / / /     /  /   / / /     /  /   /  /     / / /   /  /

  Q  E E Q   E E   Q  E E Q   E E   Q  E E Q  E E   Q   E E Q  E E
|-0--0-0-0---0-0-|-0--0-0-0---0-0-|-2--2-2-2--2-2-|-2---2-2-2--2-2--||
|-2--2-2-2---2-2-|-2--2-2-2---2-2-|-3--3-3-3--3-3-|-3---3-3-3--3-3--||
|-2--2-2-2---2-2-|-2--2-2-2---2-2-|-2--2-2-2--2-2-|-2---2-2-2--2-2--||
|-2--2-2-2---2-2-|-2--2-2-2---2-2-|-0--0-0-0--0-0-|-0---0-0-0--0-0--||
|-0--0-0-0---0-0-|-0--0-0-0---0-0-|---------------|-----------------||
|----------------|----------------|---------------|-----------------||


                   Chorus
  &
  G                 G
  E E E E Q  Q      Q  Q   Q  Q
  | | | | |  |      |  |   |  |
  / / / / /  /      /  /   /  /

  E E E E Q  Q      Q  E E Q  E E
|-2-2-2-2-2--2--||--2--2-2-2--2-2-|
|-3-3-3-3-3--3--||o-3--3-3-3--3-3-|
|-2-2-2-2-2--2--||--2--2-2-2--2-2-|
|-0-0-0-0-0--0--||--0--0-0-0--0-0-|
|---------------||o---------------|
|---------------||----------------|


  Q  Q   Q  Q     Q  Q   Q  Q     E E Q   Q  Q
  |  |   |  |     |  |   |  |     | | |   |  |
  /  /   /  /     /  /   /  /     / / /   /  /

  Q  E E Q  E E   Q  E E Q  E E   Q   E E Q  E E
|-2--2-2-2--2-2-|-2--2-2-2--2-2-|-2---2-2-2--2-2-|
|-3--3-3-3--3-3-|-3--3-3-3--3-3-|-3---3-3-3--3-3-|
|-2--2-2-2--2-2-|-2--2-2-2--2-2-|-2---2-2-2--2-2-|
|-0--0-0-0--0-0-|-0--0-0-0--0-0-|-0---0-0-0--0-0-|
|---------------|---------------|----------------|
|---------------|---------------|----------------|


                                                  1.
  D7                               G
  Q  Q   Q  Q     E E Q   Q  Q     Q  Q   Q  Q     Q  Q   Q  Q
  |  |   |  |     | | |   |  |     |  |   |  |     |  |   |  |
  /  /   /  /     / / /   /  /     /  /   /  /     /  /   /  /

  Q  E E Q  E E   Q   E E Q  E E   Q  E E Q  E E   Q  E E Q  E E
|-0--0-0-0--0-0-|-0---0-0-0--0-0-|-2--2-2-2--2-2-|-2--2-2-2--2-2--||
|-2--2-2-2--2-2-|-2---2-2-2--2-2-|-3--3-3-3--3-3-|-3--3-3-3--3-3-o||
|-2--2-2-2--2-2-|-2---2-2-2--2-2-|-2--2-2-2--2-2-|-2--2-2-2--2-2--||
|-2--2-2-2--2-2-|-2---2-2-2--2-2-|-0--0-0-0--0-0-|-0--0-0-0--0-0--||
|-0--0-0-0--0-0-|-0---0-0-0--0-0-|---------------|---------------o||
|---------------|----------------|---------------|----------------||


                Out-Chorus
  2.
D.S.S. al Dbl.&&oda
  G
  Q  Q  Q  Q     Q  Q   Q  Q     Q  Q   Q  Q
  |  |  |  |     |  |   |  |     |  |   |  |
  /  /  /  /     /  /   /  /     /  /   /  /

  Q  Q  Q  Q     Q  E E Q  E E   Q  E E Q  E E
|-2--2--2--2--||-2--2-2-2--2-2-|-2--2-2-2--2-2-|
|-3--3--3--3--||-3--3-3-3--3-3-|-3--3-3-3--3-3-|
|-2--2--2--2--||-2--2-2-2--2-2-|-2--2-2-2--2-2-|
|-0--0--0--0--||-0--0-0-0--0-0-|-0--0-0-0--0-0-|
|-------------||---------------|---------------|
|-------------||---------------|---------------|


  G                               D7
  Q  Q   Q  Q     Q  Q   Q  Q     Q  Q   Q  Q     Q  Q   Q  Q
  |  |   |  |     |  |   |  |     |  |   |  |     |  |   |  |
  /  /   /  /     /  /   /  /     /  /   /  /     /  /   /  /

  Q  E E Q  E E   Q  E E Q  E E   Q  E E Q  E E   Q  E E Q  E E
|-2--2-2-2--2-2-|-2--2-2-2--2-2-|-0--0-0-0--0-0-|-0--0-0-0--0-0-|
|-3--3-3-3--3-3-|-3--3-3-3--3-3-|-2--2-2-2--2-2-|-2--2-2-2--2-2-|
|-2--2-2-2--2-2-|-2--2-2-2--2-2-|-2--2-2-2--2-2-|-2--2-2-2--2-2-|
|-0--0-0-0--0-0-|-0--0-0-0--0-0-|-2--2-2-2--2-2-|-2--2-2-2--2-2-|
|---------------|---------------|-0--0-0-0--0-0-|-0--0-0-0--0-0-|
|---------------|---------------|---------------|---------------|


                  Q=165           Q=166           Q=167
  G
  Q  Q   Q  Q     Q  Q   Q  Q     Q  Q   Q  Q     Q  Q   Q  Q
  |  |   |  |     |  |   |  |     |  |   |  |     |  |   |  |
  /  /   /  /     /  /   /  /     /  /   /  /     /  /   /  /

  Q  E E Q  E E   Q  E E Q  E E   Q  E E Q  E E   Q  E E Q  E E
|-2--2-2-2--2-2-|-2--2-2-2--2-2-|-2--2-2-2--2-2-|-2--2-2-2--2-2-|
|-3--3-3-3--3-3-|-3--3-3-3--3-3-|-3--3-3-3--3-3-|-3--3-3-3--3-3-|
|-2--2-2-2--2-2-|-2--2-2-2--2-2-|-2--2-2-2--2-2-|-2--2-2-2--2-2-|
|-0--0-0-0--0-0-|-0--0-0-0--0-0-|-0--0-0-0--0-0-|-0--0-0-0--0-0-|
|---------------|---------------|---------------|---------------|
|---------------|---------------|---------------|---------------|


  Q=168           Q=169           Q=170           Q=171
  G                               D7
  Q  Q   Q  Q     Q  Q   Q  Q     Q  Q   Q  Q     Q  Q   Q  Q
  |  |   |  |     |  |   |  |     |  |   |  |     |  |   |  |
  /  /   /  /     /  /   /  /     /  /   /  /     /  /   /  /

  Q  E E Q  E E   Q  E E Q  E E   Q  E E Q  E E   Q  E E Q  E E
|-2--2-2-2--2-2-|-2--2-2-2--2-2-|-0--0-0-0--0-0-|-0--0-0-0--0-0-|
|-3--3-3-3--3-3-|-3--3-3-3--3-3-|-2--2-2-2--2-2-|-2--2-2-2--2-2-|
|-2--2-2-2--2-2-|-2--2-2-2--2-2-|-2--2-2-2--2-2-|-2--2-2-2--2-2-|
|-0--0-0-0--0-0-|-0--0-0-0--0-0-|-2--2-2-2--2-2-|-2--2-2-2--2-2-|
|---------------|---------------|-0--0-0-0--0-0-|-0--0-0-0--0-0-|
|---------------|---------------|---------------|---------------|


  Q=172           Q=173           Q=174           Q=175
  G
  Q  Q   Q  Q     Q  Q   Q  Q     Q  Q   Q  Q     Q  Q   Q  Q
  |  |   |  |     |  |   |  |     |  |   |  |     |  |   |  |
  /  /   /  /     /  /   /  /     /  /   /  /     /  /   /  /

  Q  E E Q  E E   Q  E E Q  E E   Q  E E Q  E E   Q  E E Q  E E
|-2--2-2-2--2-2-|-2--2-2-2--2-2-|-2--2-2-2--2-2-|-2--2-2-2--2-2-|
|-3--3-3-3--3-3-|-3--3-3-3--3-3-|-3--3-3-3--3-3-|-3--3-3-3--3-3-|
|-2--2-2-2--2-2-|-2--2-2-2--2-2-|-2--2-2-2--2-2-|-2--2-2-2--2-2-|
|-0--0-0-0--0-0-|-0--0-0-0--0-0-|-0--0-0-0--0-0-|-0--0-0-0--0-0-|
|---------------|---------------|---------------|---------------|
|---------------|---------------|---------------|---------------|


  Q=176           Q=177           Q=178           Q=179
  G                               D7
  Q  Q   Q  Q     Q  Q   Q  Q     Q  Q   Q  Q     Q  Q   Q  Q
  |  |   |  |     |  |   |  |     |  |   |  |     |  |   |  |
  /  /   /  /     /  /   /  /     /  /   /  /     /  /   /  /

  Q  E E Q  E E   Q  E E Q  E E   Q  E E Q  E E   Q  E E Q  E E
|-2--2-2-2--2-2-|-2--2-2-2--2-2-|-0--0-0-0--0-0-|-0--0-0-0--0-0-|
|-3--3-3-3--3-3-|-3--3-3-3--3-3-|-2--2-2-2--2-2-|-2--2-2-2--2-2-|
|-2--2-2-2--2-2-|-2--2-2-2--2-2-|-2--2-2-2--2-2-|-2--2-2-2--2-2-|
|-0--0-0-0--0-0-|-0--0-0-0--0-0-|-2--2-2-2--2-2-|-2--2-2-2--2-2-|
|---------------|---------------|-0--0-0-0--0-0-|-0--0-0-0--0-0-|
|---------------|---------------|---------------|---------------|


  D7                              G
  Q  Q   Q  Q     Q  Q   Q  Q     Q  Q  E E Q    Q  E E +E  E Q
  |  |   |  |     |  |   |  |     |  |  | | |    |  | |  |  | |
  /  /   /  /     /  /   /  /     /  /  / / /    /  / /  /  / /

  Q  E E Q  E E   Q  E E Q  E E   Q  Q  E E Q    Q  E E +E  E Q
|-0--0-0-0--0-0-|-0--0-0-0--0-0-|-2--2--2-2-2--|-2--2-2-(2)-2-2--|
|-2--2-2-2--2-2-|-2--2-2-2--2-2-|-3--3--3-3-3--|-3--3-3-(3)-3-3--|
|-2--2-2-2--2-2-|-2--2-2-2--2-2-|-2--2--2-2-2--|-2--2-2-(2)-2-2--|
|-2--2-2-2--2-2-|-2--2-2-2--2-2-|-0--0--0-0-0--|-0--0-0-(0)-0-0--|
|-0--0-0-0--0-0-|-0--0-0-0--0-0-|--------------|-----------------|
|---------------|---------------|--------------|-----------------|


                 Q=70
  G
  Q  Q  E E Q    Q  Q  H      +W           +W
  |  |  | | |    |     |       |            |
  /  /  / / /    /     /       /            /

  Q  Q  E E Q    Q  Q  H      +W           +W
|-2--2--2-2-2--|-2-----2----|-(2)--------|-(2)-----------*|
|-3--3--3-3-3--|-3-----3----|-(3)--------|-(3)-----------*|
|-2--2--2-2-2--|-2-----2----|-(2)--------|-(2)-----------*|
|-0--0--0-0-0--|-0-----0----|-(0)--------|-(0)-----------*|
|--------------|------------|------------|---------------*|
|--------------|------------|------------|---------------*|
|
| Gtr III
| W              W            +W           +H     +H
|--------------|------------|------------|---------------*|
|--------------|-1----------|-(1)--------|-(1)----(1)----*|
|--------------|------------|------------|---------------*|
|--------------|------------|------------|---------------*|
|--------------|------------|------------|---------------*|
|--------------|------------|------------|---------------*|
            
Submit corrections


        All Together Now lessons Hard to play? Try these video lessons and learn fast All Together Now lessons
        
↑ Back to top | Tablatures and chords for acoustic guitar and electric guitar, ukulele, drums are parodies/interpretations of the original songs. You may use it for private study, scholarship, research or language learning purposes only