» » »

Bears Den - Elysium Tabs

Artists:  A B C D E F G H I J K L M N O P Q R S T U V W X Y Z # 

Elysium Tabs

(ver. 2) Click to play this song!
Bears Den
 Rating:
4/5 (23 votes)

 Elysium  lessons Tabs too difficult? Try these video lessons and learn fast
 
                ORDER :
Intro x2
Verse x2
Interlude x1
Verse x2
Bridge x1
Interlude  x4
Interlude2 x2
Bridge x1
Interlude  x6
Interlude2 x2

Intro: G

  G
e|----------------------------------|
B|-----0-------0-------0-------0----|
G|---0-------0-------0-------0------|
D|----------------------------------|
A|----------------------------------|
E|-3-----3-3-----3-3-----3-3-----3--|

Verse : G Em Hm C9
  G                                   Em
e|-----------------------------------|-------3-------3-------3-------3-|
B|-------0-------0-------0-------0---|-----0-------0-------0-------0---|
G|-----0-------0-------0-------0-----|---------------------------------|
D|-----------------------------------|---2-----2-2-----2-2-----2-2-----|
A|-----------------------------------|---------------------------------|
E|---3-----3-3-----3-3-----3-3-----3-|---------------------------------|
  Hm                                C9
e|-----------------------------------|-------0-------0-------0-------0---|
B|-------3-------3-------3-------3---|-----------------------------------|
G|-----0-------0-------0-------0-----|-----0-------0-------0-------0-----|
D|-----------------------------------|-----------------------------------|
A|---2-----2-2-----2-2-----2-2-----2-|--3-----3-3-----3-3-----3-3------3-|
E|-----------------------------------|-----------------------------------|

Interlude : G Em D
  G                Em               D
e|----------------|-----3-------3--|-----2-------2-------2-------2---|
B|-----0-------0--|---0-------0----|---3-------3-------3-------3-----|
G|---0-------0----|----------------|---------------------------------|
D|----------------|-2-----2-2----2-|-0-----0-0-----0-0-----0-0-----0-|
A|----------------|----------------|---------------------------------|
E|-3-----3-3----3-|----------------|---------------------------------|

Bridge : Am D Am C9
  Am                                D
e|-----0-------0-------0-------0---|-----2-------2-------2-------2---|
B|---1-------1-------1-------1-----|---3-------3-------3-------3-----|
G|---------------------------------|---------------------------------|
D|---------------------------------|-0-----0-0-----0-0-----0-0-----0-|
A|-0-----0-0-----0-0-----0-0-----0-|---------------------------------|
E|---------------------------------|---------------------------------|
  Am                                C9
e|-----0-------0-------0-------0---|-----0-------0-------0-------0---|
B|---1-------1-------1-------1-----|---3-------3-------3-------3-----|
G|---------------------------------|---------------------------------|
D|---------------------------------|---------------------------------|
A|-0-----0-0-----0-0-----0-0-----0-|-3-----3-3-----3-3-----3-3-----3-|
E|---------------------------------|---------------------------------|

Interlude 2 : Hm C9 G
  Hm                C9                G
e|-----------------|-----0-------0---|---------------------------------|
B|-----3-------3---|-----------------|-----0-------0-------0-------0---|
G|---0-------0-----|---0-------0-----|---0-------0-------0-------0-----|
D|-----------------|-----------------|---------------------------------|
A|-2-----2-2-----2-|-3-----3-3-----3-|---------------------------------|
E|-----------------|-----------------|-3-----3-3-----3-3-----3-3-----3-|            
Submit corrections


        Elysium  lessons Hard to play? Try these video lessons and learn fast Elysium  lessons
        
↑ Back to top | Tablatures and chords for acoustic guitar and electric guitar, ukulele, drums are parodies/interpretations of the original songs. You may use it for private study, scholarship, research or language learning purposes only