» » »

Bears Den - Elysium Tabs

Artists:  A B C D E F G H I J K L M N O P Q R S T U V W X Y Z # 

Elysium Tabs

(ver. 1) Click to play this song!
Bears Den
 Rating:
3.6/5 (27 votes)

 Elysium  lessons Tabs too difficult? Try these video lessons and learn fast
 
                INTRO
 (G)
e|----3------3------3------3------3-----3------3-----3-----------------------|
B|----0------0------0------0------0-----0------0-----0-----------------------|
G|--0------0-------0------0------0-----0------0-----0------------------------|
D|---------------------------------------------------------------------------|
A|---------------------------------------------------------------------------|
E|3----3-3-----3-3----3-3----3-3----3-3----3-3---3-3-------------------------|

VERSE (lyrics in block below verse tab)
 (G)                         (Em)                         (D)
e|---3------3------3------3------3------3------3------3------2------2------2------2---|
B|---0------0------0------0------0------0------0------0------3------3------3------3---|
G|--0------0------0------0------0------0------0------0--------------------------------|
D|----------------------------2----2-2----2-2----2-2----2---0------0------0------0----|
A|--------------------------------------------------------2----2-2----2-2----2-2----2-|
E|3----3-3----3-3----3-3----3---------------------------------------------------------|
 (Cadd9)
e|---3-----3-----3------3----||
B|---3-----3-----3------3----||
G|---------------------------||
D|--2-----2-----2------2-----||
A|3---3-3----3-3---3-3----3--||
E|--------------------------3||(repeat)

Brother, do you believe in an afterlife
Where our souls will both collide
In some great Elysium
Way up in the sky
Free from our shackles, our chains
Our mouths, our brains
We'll open all the gates
And we will walk careless
Straight into the light

INTERLUDE
(At this point, the second guitar comes in. It seems to be mirroring these chords, except
on capo'd on the 7th fret in order to play an octave higher. It does not seem to have
a readily identifiable pattern, it seems to just be free-styling with these chord shapes.)
 (G)           (Em)           (D)
e|---3------3------3------3------2------2------2------2----------------------|
B|---0------0------0------0------3------3------3------3----------------------|
G|--0------0------0------0---------------------------------------------------|
D|--------------2----2-2----2---0------0------0------0-----------------------|
A|----------------------------2----2-2----2-2----2-2-------------------------|
E|3----3-3----3--------------------------------------------------------------|(repeat once)

REPEAT THE VERSE

I've never felt so enlightened
With every page I turn
I only find myself feeling more alone
Posing questions to a silent universe
My very thoughts a curse
They just seem to multiply
Forever in my mind

"Brother, don't grow up" PRE-CHORUS/TAG THING
 (Am)                        (D/A)                         (Am)
e|---5------5------5------5------2------2------2------2-------5------5------5|
B|---5------5------5------5------3------3------3------3-------5------5------5|
G|--5------5------5------5------2------2------2------2-------5------5------5-|
D|---------------------------------------------------------------------------|
A|----------------------------0----0-0----0-0----0-0-----0-------------------|
E|5----5-5----5-5----5-5----5------------------------------5----5-5----5-5---|
                  (Cadd9)
e|-----5------3------3------3------3------3------3---------------------------|
B|-----5------3------3------3------3------3------3---------------------------|
G|----5----------------------------------------------------------------------|
D|-----------2------2------2------2------2------2----------------------------|
A|---------3----3-3----3-3----3-3----3-3----3-3----3-3~----------------------|
E|5-5----5-------------------------------------------------------------------|

Brother, don't grow up
Brother, please never grow up

Now it switches to strumming, so here are all of the chords you're going to need over the next few sections:

    G/C      Em     D/A      Bm    Cadd9     Am
e|---3---|---3---|---2---|---2---|---3---|---0---|
B|---3---|---0---|---3---|---3---|---3---|---1---|
G|---0---|---0---|---2---|---4---|---0---|---2---|
D|---0---|---2---|---0---|---4---|---2---|---2---|
A|---2---|---2---|---0---|---2---|---3---|---0---|
E|---3---|---0---|---X---|---X---|---X---|---X---|

INTERLUDE

G/C | Em | D/A | D/A | (repeat 4 times)

BRIDGE

Bm          Cadd9           G/C
  Just hold out against the night
Bm               Cadd9          G/C
  And guard your hope with your life
         Am                D/A
For the darkness, she will come
       Am                            Cadd9
Oh and you will have nowhere left to run

CHORUS

            G/C                 Em
Oh but your eyes are wider than mine
               D/A
and help me to sleep
                 G/C          Em
I just hope that age does not erase
             D/A
all that you see
G/C           Em           D/A
    Don't let bitterness become you
G/C           Em                D/A
    Your only hopes are all within you

OUTRO

Bm          Cadd9           G/C (Palm muted strumming)
  Just hold out against the night
Bm               Cadd9          G/C (single strum)
  And guard your hope with your life            
Submit corrections


        Elysium  lessons Hard to play? Try these video lessons and learn fast Elysium  lessons
        
↑ Back to top | Tablatures and chords for acoustic guitar and electric guitar, ukulele, drums are parodies/interpretations of the original songs. You may use it for private study, scholarship, research or language learning purposes only