» » »

Bears Den - Above The Clouds Of Pompeii Tabs

Artists:  A B C D E F G H I J K L M N O P Q R S T U V W X Y Z # 

Above The Clouds Of Pompeii Tabs

(ver. 3) Click to play this song!
Bears Den
 Rating:
4.3/5 (21 vote)

 Above The Clouds Of Pompeii  lessons Tabs too difficult? Try these video lessons and learn fast
 
                Capo 9

 G                             Am                           Em
e|----------------------------|----------------------------|-----------------------------|
B|---------------0------------|---------------0------------|---------------0-------------|
G|-------0-0h2--------2-----0-|-------0-0h2--------2-----0-|--------0-0h2--------2-----0-|
D|-----0-------0--------------|-----2-------2--------------|------0----------------------|
A|----------------------------|--0------0-------0-----0----|----2------------------------|
E|--3------3-------3-----3----|----------------------------|--0-------0--------0----0----|

  C
e|----------------------------|
B|---------------0------------|
G|-------0-0h2--------2-----0-|
D|-----2-------2--------------|
A|--3------3-------3-----3----|
E|----------------------------|

Note- this is the tab for the album version.

The live version changes a little at the end like this

Capo 9

 G                             Am                           Em
e|----------------------------|----------------------------|-----------------------------|
B|---------------0------------|---------------0------------|---------------0-------------|
G|-------0-0h2--------2-----0-|-------0-0h2--------2-----0-|--------0-0h2--------2-----0-|
D|-----0-------0--------------|-----2-------2--------------|------0----------------------|
A|----------------------------|--0------0-------0-----0----|----2------------------------|
E|--3------3-------3-----3----|----------------------------|--0-------0--------0----0----|

  C
e|-----------------------3----3|
B|---------------0-------------|
G|-------0-0h2--------2-----0--|
D|-----2-------2---------------|
A|--3------3-------3-------3---|
E|-----------------------------|            
Submit corrections


        Above The Clouds Of Pompeii  lessons Hard to play? Try these video lessons and learn fast Above The Clouds Of Pompeii  lessons
        
↑ Back to top | Tablatures and chords for acoustic guitar and electric guitar, ukulele, drums are parodies/interpretations of the original songs. You may use it for private study, scholarship, research or language learning purposes only