Home » B » Bears Den »

Bears Den - Above The Clouds Of Pompeii Tabs

Artists:  A B C D E F G H I J K L M N O P Q R S T U V W X Y Z # 

Above The Clouds Of Pompeii Tabs

(ver. 2) Click to play this song!
Bears Den
 Rating:
4/5 (4 votes)
                Tuning: Capo 4

  C                            Dm                           Am
e|---------------0------------|---------------0------------|----------------0------------|
B|-------1---3--------3-----1-|-------1---3--------3-----1-|-------1----1--------3----1--|
G|-----0-------0------0-----0-|-----2-------2------2-----2-|-----0--------0------0----0--|
D|----------------------------|--0------0-------0-----0----|-----------------------------|
A|--3------3-------3-----3----|----------------------------|--0-------0-------0----0-----|
E|----------------------------|----------------------------|-----------------------------|
  F
e|----------------0-----------|
B|-------1----1--------3---1--|
G|-----0--------0------0---0--|
D|--3------3--------3----3----|
A|----------------------------|
E|----------------------------|            
Submit corrections

↑ Back to top | Tablatures and chords for acoustic guitar and electric guitar, ukulele, drums are parodies/interpretations of the original songs. You may use it for private study, scholarship, research or language learning purposes only