Home » B » Bad English »

Bad English - When I See You Smile Tabs

Artists:  A B C D E F G H I J K L M N O P Q R S T U V W X Y Z # 

When I See You Smile Tabs

(ver. 2) Click to play this song!
Bad English

e|-------------12-----|-14b-14b-14-12-------------|
B|--15b--12-15--------|----------------15-15b-----|
G|----------------14b-|---------------------------|
D|--------------------|---------------------------|
A|--------------------|---------------------------|
E|--------------------|---------------------------|


e|--------12------17b-|-17-16h17p16h---------------------------|
B|--12-15----15b------|---------------17-15--------------------|
G|--------------------|---------------------16-14-13----14-----|
D|--------------------|------------------------------14--------|
A|--------------------|----------------------------------------|
E|--------------------|----------------------------------------|            
Submit corrections

↑ Back to top | Tablatures and chords for acoustic guitar and electric guitar, ukulele, drums are parodies/interpretations of the original songs. You may use it for private study, scholarship, research or language learning purposes only