Home » B » Bachman Turner Overdrive »

Bachman Turner Overdrive - You Aint Seen Nothing Yet Bass

Artists:  A B C D E F G H I J K L M N O P Q R S T U V W X Y Z # 

You Aint Seen Nothing Yet Bass

(ver. 2) Click to play this song!
Bachman Turner Overdrive
    [Intro]
    Q=116
    4/4
    Gtr I
     H.      +E  E   Q.   E +Q.   E   H.      +E  E   Q.   E +Q.   E
G||----------------|----------------|---------------|-----------------||
D||o---------------|-5--------------|---------------|-5--------------o||
A||o-------------7-|------5-(5)---7-|-------------7-|------5-(5)---7-o||
E||--5-------(5)---|----------------|-5-------(5)---|-----------------||


   [1st & 2nd Verses]
     H.      +E  E   Q.   E +Q.   E   H.      +E  E   Q.   E +Q.   E
G||----------------|----------------|---------------|-----------------|
D||o---------------|-5--------------|---------------|-5---------------|
A||o-------------7-|------5-(5)---7-|-------------7-|------5-(5)---7--|
E||--5-------(5)---|----------------|-5-------(5)---|-----------------|


   H.      +E  E   Q.   E +Q.   E   H.      +E  E   Q.   E Q  E E
G|---------------|----------------|---------------|---------------||
D|---------------|-5--------------|---------------|-5-------------||
A|-------------7-|------5-(5)---7-|-------------7-|------5-5--7-5-||
E|-5-------(5)---|----------------|-5-------(5)---|---------------||


  [Pre-Chorus]
  Segno $
   H    +E. S E E   H    Q  Q    Q  E E Q  Q    Q  E E +E  E E E
G|----------------|------------|--------------|------------------|
D|----------------|-3----5--5--|--------------|-4----4-(4)-2-----|
A|-5----(5)-5---5-|------------|--------4--7--|--------------4-3-|
E|------------5---|------------|-5----5-------|------------------|


                                [Chorus]
   Q  E E Q  E E   H.      Q     Q  H    Q    Q  H.
G|---------------|------------||------------|----------|
D|-----------4-3-|-2-------2--||------------|----------|
A|-2----2-2------|------------||---------7--|-5--------|
E|---------------|------------||-5----------|----------|


   Q  H    Q    Q  H.        Q  H    Q    Q  H.
G|------------|------------|------------|----------|
D|------------|------------|------------|----------|
A|---------7--|-5----------|---------7--|-5--------|
E|-5----------|------------|-5----------|----------|


                             [Interlude]
                             1.
                    To Coda
   Q  H    Q    Q  Q  Q  Q     H.      +E  E   Q.   E +Q.   E   H.      +E  E
G|------------|-------------||---------------|----------------|---------------|
D|------------|-------------||---------------|-5--------------|---------------|
A|---------7--|-5--4--2-----||-------------7-|------5-(5)---7-|-------------7-|
E|-5----------|----------0--||-5-------(5)---|----------------|-5-------(5)---|


   Q.   E +Q.   E   H.      +E  E   Q.   E +Q.   E   H.      +E  E
G|----------------|---------------|----------------|---------------|
D|-5--------------|---------------|-5--------------|---------------|
A|------5-(5)---7-|-------------7-|------5-(5)---7-|-------------7-|
E|----------------|-5-------(5)---|----------------|-5-------(5)---|


                        [Guitar Solo]
                        2.
   Q.   E +Q.   E         H.      +E  E   Q.   E +Q.   E   H.      +E  E
G|-----------------||-||----------------|----------------|----------------|
D|-5--------------o||-||o---------------|-5--------------|----------------|
A|------5-(5)---7-o||-||o-------------7-|------5-(5)---7-|-------------7--|
E|-----------------||-||--5-------(5)---|----------------|-5-------(5)----|


                                        [Out-Chorus]
   1.,2.,3.          4.
                     Dal Segno al Coda  Coda &
   Q.   E +Q.   E  4x Q.   E +Q.   E      Q  Q  Q  Q    Q  Q  E Q  E
G|-----------------||-----------------||--------------|---------------|
D|-5--------------o||-5---------------||o-------------|---------------|
A|------5-(5)---7-o||------5-(5)---7--||o----------7--|-5-----5-5--7--|
E|-----------------||-----------------||--5-----5-----|---------------|


   Q  Q  Q  Q    Q  Q  E E E E   Q  Q  Q  Q
G|-------------|---------------|-------------|
D|-------------|---------------|-------------|
A|----------7--|-5-----5-5-7-7-|----------7--|
E|-5-----5-----|---------------|-5-----5-----|


   Q  Q  Q  E E   Q  Q  Q  Q    Q  Q  Q  Q
G|--------------|-------------|--------------||
D|--------------|-------------|-------------o||
A|-5-----5--5-5-|----------7--|-5--4--2-----o||
E|--------------|-5-----5-----|----------0---||

            
Submit corrections

↑ Back to top | Tablatures and chords for acoustic guitar and electric guitar, ukulele, drums are parodies/interpretations of the original songs. You may use it for private study, scholarship, research or language learning purposes only