» » »

Bachman Turner Overdrive - Not Fragile Bass

Artists:  A B C D E F G H I J K L M N O P Q R S T U V W X Y Z # 

Not Fragile Bass

(ver. 2) Click to play this song!
Bachman Turner Overdrive
 Rating:
3.4/5 (5 votes)
    Not Fragile lessons Tabs too difficult? Try these video lessons and learn fast
                ---------------------------------------------------------------------------
			   Not Fragile - Bachman-Turner Overdrive
---------------------------------------------------------------------------


Tuning: Standard

INTRO\VERSE
G|--------------------------------------------------------------------|
D|--------------------------------------------------------------------|
A|--------------------3--------------------------------5---3----------|
E|---5--5--5--5--5--------3---5-------5--5--5--5--5------------3--5---|

Change UP in verse
G|---------------------------------------------------|
D|---------------------------------------------------|
A|---------------------------------------------------|
E|--2--3---2--3---2--3---2--3---2--3-----------------|

CHORUS
G|------------------------------------------------------------|
D|------------------------------------------------------------|
A|--5--4--5--4--5--4--5--4------------------------------------|
E|--------------------------1--0--1--0--1--0--1--0--1--0------|

| /  slide up
| \  slide down
| h  hammer-on
| p  pull-off
| ~  vibrato
| +  harmonic
| x  Mute note
===========================================================================
            
Submit corrections

↑ Back to top | Tablatures and chords for acoustic guitar and electric guitar, ukulele, drums are parodies/interpretations of the original songs. You may use it for private study, scholarship, research or language learning purposes only