» » »

Avicii - Heart Upon My Sleeve Tabs

Artists:  A B C D E F G H I J K L M N O P Q R S T U V W X Y Z # 

Heart Upon My Sleeve Tabs

(ver. 3) Click to play this song!
Avicii
 Rating:
4/5 (4 votes)

 Heart Upon My Sleeve lessons Tabs too difficult? Try these video lessons and learn fast
 
                (Intro)
HEART UPON MY SLEEVE - AVICII

Standard Tuning
No Capo

An extension of contributor Mattiaskrantz tab. Full credit to him for the first 
portions of it, which is the harder part.. :)  
I continued the easier bits up to when the strings start in the song. Hopefully I 
did ok, let me know what you think 



e|--------------------------|--------------------------|---------------------|
B|---------------0h1p0------|--------------------------|--------0------0-----|
G|---------0------------2p0-|-------0-----0h2p0-----0--|---------------------|
D|------2-----2-------------|-----0---0----------4-----|------1------1-------|
A|---3----------------------|--------------------------|---2------2----------|
E|--------------------------|--3-----------------------|---------------------|
 
e|---0--------------|
B|---5---3----------|
G|-----------4/2-0--|
D|------------------|
A|------------------|
E|------------------|

e|--------------------------|--------------------------|---------------------|
B|---------------0h1p0------|--------------------------|--------0------0-----|
G|---------0------------2p0-|-------0----0h2p0-----0---|---------------------|
D|------2-----2-------------|-----0---0---------4------|-----1------1-----1--|
A|---3----------------------|--------------------------|--2------2------2----|
E|--------------------------|--3-----------------------|---------------------|
 

e|----------------|
B|-------0--------|
G|----------------|
D|----1--------1--|
A|-2--------2-----|
E|----------------|


e|--------------------------|--------------------------|---------------------|
B|---------------0----------|---------------0----------|--------------0------|
G|---------0----------------|---------0----------------|--------2------------|
D|------2-----2-------------|------2-----2-------------|-----1-----1---------|
A|--------------------------|--------------------------|--2------------------|
E|---0----------------------|---3----------------------|---------------------|


e|------------------0--|
B|---------------3-----|
G|---------2-----------|
D|------0-----0--------|
A|---------------------|
E|---2-----------------|


e|--------------------------|--------------------------|---------------------|
B|---------------0----------|---------------0----------|--------------0------|
G|---------0----------------|---------0----------------|--------2------------|
D|------2-----2-------------|------2-----2-------------|-----1-----1---------|
A|--------------------------|--------------------------|--2------------------|
E|---0----------------------|---3----------------------|---------------------|


e|---------------------|
B|---------------3-----|
G|---------2-----------|
D|------0-----0--------|
A|---------------------|
E|---2-----------------|


e|--------------------------|--------------------------|---------------------|
B|---------------0h1p0------|--------------------------|--------0------0-----|
G|---------0------------2p0-|-------0-----0h2p0-----0--|---------------------|
D|------2-----2-------------|-----0---0----------4-----|------1------1-------|
A|---3----------------------|--------------------------|---2------2----------|
E|--------------------------|--3-----------------------|---------------------|
 
e|---0--------------|
B|---5---3----------|
G|-----------4/2-0--|
D|------------------|
A|------------------|
E|------------------|

e|--------------------------|--------------------------|---------------------|
B|---------------0h1p0------|--------------------------|--------0------0-----|
G|---------0------------2p0-|-------0----0h2p0-----0---|---------------------|
D|------2-----2-------------|-----0---0---------4------|-----1------1-----1--|
A|---3----------------------|--------------------------|--2------2------2----|
E|--------------------------|--3-----------------------|---------------------|
 

e|------------------------|-------------------------|------------------------|
B|-------0--------0-------|-------0--------0--------|-------0--------0-------|
G|------------------------|-------------------------|------------------------|
D|----1--------1--------1-|----1--------1--------1--|----1--------1--------1-|
A|-2--------2--------2----|-2--------2--------2-----|-2--------2--------2----|
E|------------------------|-------------------------|------------------------|


e|------------------------|
B|-------0--------0-------|
G|------------------------|
D|----1--------1----------|
A|-2--------2-------------|
E|------------------------|
            
Submit corrections


        Heart Upon My Sleeve lessons Hard to play? Try these video lessons and learn fast Heart Upon My Sleeve lessons
        
↑ Back to top | Tablatures and chords for acoustic guitar and electric guitar, ukulele, drums are parodies/interpretations of the original songs. You may use it for private study, scholarship, research or language learning purposes only