» » »

Avicii - Gonna Love Ya Chords

Artists:  A B C D E F G H I J K L M N O P Q R S T U V W X Y Z # 

Gonna Love Ya Chords

(ver. 1) Click to play this song!
Avicii
 Rating:
2.9/5 (27 votes)

 Gonna Love Ya  lessons Tabs too difficult? Try these video lessons and learn fast
 
                Standard tuning
No capo

    D#m   C#  B
E|---11---9----7---
B|---11---9----7---
G|---11---10---8---
D|---13---11---9---
A|---13---11---9---
E|---11---9----7---

          D#m
I'm gonna love ya
     C#     B
Like no one could
          B              C#     D#m
Make your heart feel the way it should
           D#m
I'm gonna hold ya
        C#  B
When no one would
        B         C#           D#m
Cause I swear you deserve some good


D#m   C#     B
Living up in California
B      C#                  D#m C#  B   C#       
Loving life that I've been waiting for ya
D#m       C#                 B
Please my dear don't turn my face
B        C#               D#m
Oh God I hope it's not to late


          D#m    C#
I'm gonna love ya
C#        B
I'm gonna love ya
          B      C#
I'm gonna love ya
C#          D#m  
Like no one could
          D#m    C#
I'm gonna love ya
C#             B
Like no one could
B                        C#         D#m
Make your heart feel the way it should
D#m              C#
I'm gonna hold ya
C#          B
When no one would
B                 C#           D#m
Cause I swear you deserve some good

B C# D#m x8

D#m            C#               B 
Sometimes it's hard to have the other hand
B        C#                  D#m  C# B C#  D#m
When every dream you have is turning into sand
D#m          C#               B
You need someone to make your game
B          C#                          D#m
But it took your breath and blew it away


          D#m    C#
I'm gonna love ya
C#          B
Like no one could
B                        C#         D#m
Make your heart feel the way it should
D#m              C#
I'm gonna hold ya
C#          B
When no one would
        B         C#           D#m
Cause I swear you deserve some good



          D#m    C#
I'm gonna love ya
C#        B
I'm gonna love ya
          B      C#
I'm gonna love ya
C#          D#m  
Like no one could

          D#m    C#
I'm gonna love ya
C#        B
I'm gonna love ya
          B      C#
I'm gonna love ya
C#          D#m  
Like no one could

B C# D#m x4

          D#m    C#
I'm gonna love ya
B
   love ya
          B
I'm gonna love ya
C#          D#m  
Like no one could

          D#m    C#
I'm gonna love ya
B
   love ya
          B
I'm gonna love ya
C#          D#m  
Like no one could

   D#m                            C#
e|---------------------------------------------------------------------------|
B|---------------------------------------------------------------------------|
G|--11----------------------------10-----------------------------------------|
D|--13-----13---------------------11-----11----------------------------------|
A|--13------------13--------------11------------11---------------------------|
E|---------------------------------------------------------------------------|
I'm gonna love ya                 like he never 

   B                              B
e|---------------------------------------------------------------------------|
B|---------------------------------------------------------------------------|
G|--8-----------------------------8------------------------------------------|
D|--9-----9-----------------------9-----9------------------------------------|
A|--9-----------9-----------------9-----------9------------------------------|
E|---------------------------------------------------------------------------|
   could,                          cause i know you de-
   C#                             D#m
e|---------------------------------------------------------------------------|
B|---------------------------------------------------------------------------|
G|--10-----------------------------11----------------------------------------|
D|--11-----11----------------------13-----13---------------------------------|
A|--11------------11---------------13------------13--------------------------|
E|---------------------------------------------------------------------------|

   serve      some                 good.


            
Submit corrections


        Gonna Love Ya  lessons Hard to play? Try these video lessons and learn fast Gonna Love Ya  lessons
        
↑ Back to top | Tablatures and chords for acoustic guitar and electric guitar, ukulele, drums are parodies/interpretations of the original songs. You may use it for private study, scholarship, research or language learning purposes only