Home » A » Avenged Sevenfold »

Avenged Sevenfold - Almost Easy Bass

Artists:  A B C D E F G H I J K L M N O P Q R S T U V W X Y Z # 

Almost Easy Bass

(ver. 3) Click to play this song!
Avenged Sevenfold
#------------------------------------------------------------------------------##

                             ALMOST EASY (Bassline)
                        As recorded by Avenged Sevenfold
                     (From the 2007 Album AVENGED SEVENFOLD)

Words and Music by Matthew Sanders, James Sullivan, Brian Haner, Jr., and Zachary Baker

Gtr I (Db Ab Db Gb) - 'Untitled'

  Q=174
 6/4
  Gtr I
  E E E E +E  E Q  E E E E   E Q  E E E E E E E Q
|--------------------------|-----------------------|
|--------------------------|-----------------------|
|-5-5---5-(5)-5-5--5-5-5-5-|-3-3--3---3-3-3-3-3-3--|
|--------------------------|-----------------------|


  E E E E +E  E E E E E Q    E E E E E E E E E E E E
|--------------------------|--------------------------|
|--------------------------|--------------------------|
|--------------------------|-1-1-1-1-1-1-3-3-3-3-3-3--|
|-5-5---5-(5)-5-5-5-5-5-5--|--------------------------|


  E E E E +E  E Q  E E E E   E Q  E E E E E E E Q
|--------------------------|-----------------------|
|--------------------------|-----------------------|
|-5-5---5-(5)-5-5--5-5-5-5-|-3-3--3---3-3-3-3-3-3--|
|--------------------------|-----------------------|


  E E E E +E  E E E E E Q    E E E E E E E E E E E E
|--------------------------|----------------------------||
|--------------------------|----------------------------||
|--------------------------|-1-1-1-1-1-1-3-3-3-3-3-3----||
|-5-5---5-(5)-5-5-5-5-5-5--|----------------------------||


   4/4
    Q   E E E E E E   E E E E E E E E
||------------------|-----------------|
||o-----------------|-----------------|
||o-5\------------6-|-4-----4-1-----4-|
||------0-0-0-0-0---|---0-0-----0-0---|


                  1.
  Q  E E E E E E   S S S S S S E S S S S S  S E
|----------------|-------------------------------||
|----------------|------------------------------o||
|-5--------------|------------------------------o||
|----0-0-0-0-0-0-|-0-0-0-0-7h8p7-0-0-0-0-8h10p8--||


  2.
                             $
  S S S S S S S S E E Q      Q  E E E E E E   Q  E E E E E E
|------------------------||-----------------|----------------|
|------------------------||o----------------|----------------|
|------------------------||o----------------|----------------|
|-0-0-0-0-0-0-0-0-5-6-5--||--0--0-0-0-0-0-0-|-0--0-0-0-0-0-0-|


  Q  E E E E E E   S S S S S S S S E E Q
|----------------|---------------------------||
|----------------|--------------------------o||
|----------------|--------------------------o||
|-0--0-0-0-0-0-0-|-0-0-0-0-0-0-0-0-5-6-5-----||


  Q  S S E S S E S S E   Q  S S E S S E S S E
|----------------------|----------------------|
|----------------------|----------------------|
|----------------------|----------------------|
|-0--0-0-0-0-0-0-0-0-0-|-0--0-0-0-0-0-0-0-0-0-|


  Q  S S E S S E S S E   S S S S S S S S E E Q
|----------------------|--------------------------|
|----------------------|--------------------------|
|----------------------|--------------------------|
|-0--0-0-0-0-0-0-0-0-0-|-0-0-0-0-0-0-0-0-5-6-5----|


  Q  E E E E E E   Q  E E E E E E   Q  E E E E E E   S S S S S S S S E E Q
|----------------|----------------|----------------|--------------------------||
|----------------|----------------|----------------|--------------------------||
|----------------|----------------|----------------|--------------------------||
|-0--0-0-0-0-0-0-|-0--0-0-0-0-0-0-|-0--0-0-0-0-0-0-|-0-0-0-0-0-0-0-0-5-6-5----||


    Q  E E E E Q    E E E E Q  E E   Q  E E E E Q    E E E E Q  Q
||----------------|----------------|---------------|----------------||
||o---------------|----------------|---------------|---------------o||
||o------5-----3--|-3-3-x-0-1--0-0-|-1--1-1-x-3-3--|-3-3-3-3-4--4--o||
||--0--0-----0----|----------------|---------------|----------------||


  E E E E +E  E E E   +E  Q  E E Q  E   Q  E E +E  E E E   +E  Q  E Q  E E
|-------------------|-----------------|------------------|------------------|
|-------------------|-----------------|------------------|------------------|
|-------------------|-----------------|------------------|------------------|
|-3-3-3-3-(3)-3-3-3-|-(3)-3--3-3-3--3-|-3--3-3-(3)-3-3-3-|-(3)-3--3-3--3-3--|


  Q  E E +E  E E E   +E  Q  E E Q  E
|------------------|-----------------|
|------------------|-----------------|
|------------------|-----------------|
|-0--0-0-(0)-0-0-0-|-(0)-0--0-0-0--0-|


        To Coda             D.S. al Coda
  Q  E E +E  E Q    S S S S S S S S E E Q
|-----------------|--------------------------||
|-----------------|--------------------------||
|-----------------|--------------------------||
|-0--0-0-(0)-0-0--|-0-0-0-0-0-0-0-0-5-6-5----||


  &
  E E E E E E E E   E E E E +E  E E E   +E  Q  E E Q  E
|-----------------|-------------------|-----------------|
|-----------------|-------------------|-----------------|
|-----------------|-------------------|-----------------|
|-0-0-0-0-3s5-5-5-|-3-3-3-3-(3)-3-3-3-|-(3)-3--3-3-3--3-|


  Q  E E +E  E E E   +E  Q  E Q  E E
|------------------|-------------------|
|------------------|-------------------|
|------------------|-------------------|
|-3--3-3-(3)-3-3-3-|-(3)-3--3-3--3-3---|


  Q  E E +E  E E E   +E  Q  E E Q  E
|------------------|-----------------|
|------------------|-----------------|
|------------------|-----------------|
|-0--0-0-(0)-0-0-0-|-(0)-0--0-0-0--0-|


  Q  E E +E  E Q    S S S S S S S S E E Q
|-----------------|--------------------------||
|-----------------|--------------------------||
|-----------------|--------------------------||
|-0--0-0-(0)-0-0--|-0-0-0-0-0-0-0-0-5-6-5----||


    Q   E E E E E E   E E E E E E E E   Q  E E E E E E
||------------------|-----------------|----------------|
||o-----------------|-----------------|----------------|
||o-5\------------6-|-4-----4-1-----4-|-5--------------|
||------0-0-0-0-0---|---0-0-----0-0---|----0-0-0-0-0-0-|


 1.                                2.
  S S S S S S E S S S S S  S E     S S S S S S S S E E Q
|-------------------------------||--------------------------||
|------------------------------o||--------------------------||
|------------------------------o||--------------------------||
|-0-0-0-0-7h8p7-0-0-0-0-8h10p8--||-0-0-0-0-0-0-0-0-5-6-5----||


    E S S S S E S S S S S S S S   E S S S S E S S S S S S S S
||------------------------------|-----------------------------|
||o-----------------------------|-----------------------------|
||o-----------------------------|-----------------------------|
||--0-0-0-0-0-0-0-0-0-0-0-0-0-0-|-0-0-0-0-0-0-0-0-0-0-0-0-0-0-|


  E Q  E +E  Q  E   E Q  E +E  Q  E
|-----------------|--------------------||
|-----------------|-------------------o||
|-----------------|-------------------o||
|-3-5--6-(6)-6--6-|-3-5--6-(6)-6--6----||


   6/4
    E E E E +E  E Q  E E E E   E Q  E E E E E E E Q
||---------------------------|-----------------------|
||o--------------------------|-----------------------|
||o-5-5---5-(5)-5-5--5-5-5-5-|-3-3--3---3-3-3-3-3-3--|
||---------------------------|-----------------------|


  E E E E +E  E E E E E Q    E E E E E E E E E E E E
|--------------------------|--------------------------||
|--------------------------|-------------------------o||
|--------------------------|-1-1-1-1-1-1-3-3-3-3-3-3-o||
|-5-5---5-(5)-5-5-5-5-5-5--|--------------------------||


  Q  E E +E  E Q  E E E E   Q  E E +E  E Q  E E Q
|-------------------------|------------------------|
|-------------------------|------------------------|
|-------------------------|------------------------|
|-0--0-0-(0)-0-0--0-0-0-2-|-3--3-3-(3)-3-3--3-3-3--|


  Q  E E +E  E E E E E E E   Q  E E +E  E Q  E E Q
|--------------------------|--------------------------|
|--------------------------|--------------------------|
|-3--3-3-(3)-3-3-3-3-3-3-3-|-0--0-0-(0)-0-0--0-0-0----|
|--------------------------|--------------------------|


  Q  E E +E  E Q  E E E E   Q  E E +E  E Q  E E E E
|-------------------------|-------------------------|
|-------------------------|-------------------------|
|-1--1-1-(1)-1-1--1-1-3-5-|-8--8-8-(8)-8-8--8-8-8-8-|
|-------------------------|-------------------------|


  Q  E E +E  E Q  E E E E   Q  E E +E  E E Q  Q  E
|-------------------------|---------------------------|
|-------------------------|---------------------------|
|-3--3-3-(3)-3-3--3-3-3-3-|-0--0-0-(0)-0-0-0--0--0----|
|-------------------------|---------------------------|


  E Q  E +E  E E Q  Q  E   Q  E E E E Q  E E E E   E Q  E +E  E E E E E E E
|------------------------|-----------------------|--------------------------||
|------------------------|-----------------------|--------------------------||
|-0-0--0-(0)-0-0-0--0--0-|-1--1-1-1-1-1--1-1-1-1-|-1-1--1-(1)-1-1-1-1-1-3-3-||
|------------------------|-----------------------|--------------------------||


 4/4
  Q  Q  H      W          W          W
|------------|----------|----------|------|
|------------|----------|----------|------|
|------------|----------|----------|------|
|-0----------|----------|----------|------|


  S S S S E E H      W          S S S S E E Q  E E   E Q  E Q  Q
|------------------|----------|--------------------|----------------||
|------------------|----------|--------------------|----------------||
|------------------|----------|----------------3-3-|-3-3--3-4--4----||
|-0-0-0-0-0-0------|----------|-0-0-0-0-0-0--------|----------------||


  E E E E +E  E E E   +E  Q  E E Q  E   Q  E E +E  E E E   +E  Q  E Q  E E
|-------------------|-----------------|------------------|------------------|
|-------------------|-----------------|------------------|------------------|
|-------------------|-----------------|------------------|------------------|
|-3-3-3-3-(3)-3-3-3-|-(3)-3--3-3-3--3-|-3--3-3-(3)-3-3-3-|-(3)-3--3-3--3-3--|


  Q  E E +E  E E E   +E  Q  E E Q  E   Q  E E +E  E Q    E E E E E E E E
|------------------|-----------------|-----------------|------------------|
|------------------|-----------------|-----------------|------------------|
|------------------|-----------------|-----------------|------------------|
|-0--0-0-(0)-0-0-0-|-(0)-0--0-0-0--0-|-0--0-0-(0)-0-0--|-0-0-0-0-3s5-5-5--|


  E E E E +E  E E E   +E  Q  E E Q  E   Q  E E +E  E E E   +E  Q  E Q  E E
|-------------------|-----------------|------------------|------------------|
|-------------------|-----------------|------------------|------------------|
|-------------------|-----------------|------------------|------------------|
|-3-3-3-3-(3)-3-3-3-|-(3)-3--3-3-3--3-|-3--3-3-(3)-3-3-3-|-(3)-3--3-3--3-3--|


  Q  E E +E  E E E   +E  Q  E E Q  E
|------------------|-----------------|
|------------------|-----------------|
|------------------|-----------------|
|-0--0-0-(0)-0-0-0-|-(0)-0--0-0-0--0-|


  Q  E E +E  E Q    S S S S S S S S E E Q
|-----------------|--------------------------||
|-----------------|--------------------------||
|-----------------|--------------------------||
|-0--0-0-(0)-0-0--|-0-0-0-0-0-0-0-0-5-6-5----||


    Q   E E E E E E   E E E E E E E E   Q  E E E E E E
||------------------|-----------------|----------------|
||o-----------------|-----------------|----------------|
||o-5\------------6-|-4-----4-1-----4-|-5--------------|
||------0-0-0-0-0---|---0-0-----0-0---|----0-0-0-0-0-0-|


 1.                                2.
  S S S S S S E S S S S S  S E     S S S S S S S S E E Q
|-------------------------------||--------------------------*|
|------------------------------o||--------------------------*|
|------------------------------o||--------------------------*|
|-0-0-0-0-7h8p7-0-0-0-0-8h10p8--||-0-0-0-0-0-0-0-0-5-6-5----*|


Duration Legend
---------------
W - whole; H - half; Q - quarter; E - 8th; S - 16th; T - 32nd; X - 64th; a - acciaccatura
+ - note tied to previous; . - note dotted; .. - note double dotted
Uncapitalized letters represent notes that are staccato (1/2 duration)
Irregular groupings are notated above the duration line
Duration letters will always appear directly above the note/fret number it represents the
duration for.  Duration letters with no fret number below them represent rests.  Multi-
bar rests are notated in the form Wxn, where n is the number of bars to rest for.  Low
melody durations appear below the staff

Tablature Legend
----------------
 h   - hammer-on
 p   - pull-off
 b   - bend
 pb  - pre-bend
 r   - bend release (if no number after the r, then release immediately)
 /\  - slide into or out of (from/to "nowhere")
 s   - legato slide
 S   - shift slide
  - natural harmonic
[n]  - artificial harmonic
n(n) - tapped harmonic
 ~   - vibrato
 tr  - trill
 T   - tap
 TP  - trem. picking
 PM  - palm muting
\n/  - tremolo bar dip; n = amount to dip
 \n  - tremolo bar down
 n/  - tremolo bar up
/n\  - tremolo bar inverted dip
 =   - hold bend; also acts as connecting device for hammers/pulls
 <>  - volume swell (louder/softer)
 x   - on rhythm slash represents muted slash
 o   - on rhythm slash represents single note slash

Misc Legend
-----------
 |  - bar
||  - double bar
||o - repeat start
o|| - repeat end
*|  - double bar (ending)
 :  - bar (freetime)
 $  - Segno
 &  - Coda
Tempo markers -  = BPM(8/16=s8/s16), where s8 = swing 8ths, s16 = swing 16ths


***************************************************************************************
***************************************************************************************
            
Submit corrections

↑ Back to top | Tablatures and chords for acoustic guitar and electric guitar, ukulele, drums are parodies/interpretations of the original songs. You may use it for private study, scholarship, research or language learning purposes only