Home » A » Avenged Sevenfold »

Avenged Sevenfold - Almost Easy Bass

Artists:  A B C D E F G H I J K L M N O P Q R S T U V W X Y Z # 

Almost Easy Bass

(ver. 2) Click to play this song!
Avenged Sevenfold
Tuning= Drop C#

By Tayler Curtis

x2 
--------------------------------------------------------------|
--------------------------------------------------------------|
555555-55555-----3333-3333333--------------1111-1-33333-------|
------------------------------555555-55555--------------------|


--------------------------------------------------------|
--------------------------------------------------------|
---5---------6-4----4-1-----4-5-------------------------|
-----00000-------00-----00-------000000-000000000--565--|

x2
---------------------------------------------------------|
---------------------------------------------------------|
-5--------5-------5--------------------------------------|
----00000---00000---000000-00000000-565------------------|

x2
--------------------------------------------------------------|
--------------------------------------------------------------|
---5---------------5---------------5--------------------------|
------000-000-000-----000-000-000----000-000-000-00000000-565-|


---------------------------------------------------------|
---------------------------------------------------------|
---5555-0-3333-0-1111-0-3333-4444-5555-------------------|
---------------------------------------------------------|


---------------------------------------------------------|
---------------------------------------------------------|
---5555-0-3333-0-1111-0-3333-4444------------------------|
---------------------------------------------------------|


---------------------------------------------------------|
---------------------------------------------------------|
---8--88888-8-88888--88-87-55555555----------------------|
--------------------------------------565----------------|


x4
---------------------------------------------------------|
---------------------------------------------------------|
-5--------5-------5--------------------------------------|
----00000---00000---000000-00000000-565------------------|

x2
---------------------------------------------------------|
---------------------------------------------------------|
---5555-0-3333-0-1111-0-3333-4444-5555-------------------|
---------------------------------------------------------|


---------------------------------------------------------------|
---------------------------------------------------------------|
---8--88888-8-88888--8-10-8-7-77-7-----------------------------|
------------------------------------0000000--------------------|

---------------------------------------------------------------------|
---------------------------------------------------------------------|
-------------------88888----8-10-8-7-77-7 5-555-5-5-5-555-5-5--------|
5-3-5-3-2-2-33333-----------------------------------------------565--|


x2
--------------------------------------------------------|
--------------------------------------------------------|
---5---------6-4----4-1-----4-5-------------------------|
-----00000-------00-----00-------000000-000000000--565--|

x2
-------------------------------------------------|
-------------------------------------------------|
-----------------------------------------5-------|
---0-0-00-0-0-00-0-0-00-0-0-00-0-0-3-5-6---3-5-6-|

x2
--------------------------------------------------------------|
--------------------------------------------------------------|
555555-55555-----3333-3333333--------------1111-1-33333-------|
------------------------------555555-55555--------------------|

----------------------------------------------------------|
----------------------------------------------------------|
--------------------------------------33333333--88888888--|
-00000000-33333333-55555555-88888888----------------------|

----------------------------------------------|
----------------------------------------------|
----------------------------------------------|
-33333333-00000000-1111111-33333--55555-777777|



---------------------------------|
---------------------------------|
---------------------------33-4--|
-000000---000000--000000---------|

x2
---------------------------------------------------------------------|
---------------------------------------------------------------------|
-------------------88888----8-10-8-7-77-7-5-555-5-5-5-555-5-5--------|
5-3-5-3-2-2-33333-----------------------------------------------565--|


x2
--------------------------------------------------------|
--------------------------------------------------------|
---5---------6-4----4-1-----4-5-------------------------|
-----00000-------00-----00-------000000-000000000--565--|
            
Submit corrections

↑ Back to top | Tablatures and chords for acoustic guitar and electric guitar, ukulele, drums are parodies/interpretations of the original songs. You may use it for private study, scholarship, research or language learning purposes only