» » »

Autopilot Off - What I Want Tabs

Artists:  A B C D E F G H I J K L M N O P Q R S T U V W X Y Z # 

What I Want Tabs

(ver. 2) Click to play this song!
Autopilot Off
 Rating:
4/5 (4 votes)

 What I Want lessons Tabs too difficult? Try these video lessons and learn fast
 
                -------------------------------------------------------------------------------
			     WHAT I WANT - Autopilot Off
-------------------------------------------------------------------------------

Tuning: Standard

This is my first time tabbing... I know it's not 100% and that there's two or more 
guitars in this song. I'm working on it. Please send me corrections. Hope you enjoy it.

Intro:
e|---------------------------|
B|---------------------------|
G|---------------------------|
D|---------------------------|
A|---------------------------|
E|----4-4-2-4-4-2-4-2-4-4----|

Verse:
e|---------------------------|
B|---------------------------|
G|----13--9------------------|
D|----x---x-----3 times------|
A|----11--7------------------|
E|----strumming--------------|

Before Chorus:
e|---------------------------|
B|---------------------------|
G|---------------------------|
D|--2-2-2-2-2-2-2-2-2-2-2-2--|
A|--2-2-2-2-2-2-2-2-2-2-2-2--|
E|--0-0-0-0-0-0-0-0-0-0-0-0--|
    |-----palm muted----|

Chorus:
e|----------------------------|
B|----------------------------|
G|----4--6--4--6--4--6---9----|
D|----4--6--4--6--4--6---9----|
A|----2--4--2--4--2--4---7----|
E|----------------------------|

Solo:
e|---------------------------------------------------------------------------|
B|---------------------------------------------------------------------------|
G|-----------------------------------------------------------4---------------|
D|-----------------------------------------------------------4---------------|
A|---------------------4-6-2---------4-6-2---6-4-2-1---------2---------------|
E|---2-4-2--4---2-4-2----------2-4-2-----------------------------------------|

Order:	Intro
	Verse
	Chorus (2x)
	Verse
	Chorus
	Solo (2x)
	Chorus (3x)

************************************

| /   slide up
| \   slide down
| h   hammer-on
| p   pull-off
| ~   vibrato
| +   harmonic
| x   Mute note
| b   Bend
| pb  Pre-bend
| br  Bend release
| pbr Pre-bend release
| brb Bend release bend

************************************
            
Submit corrections


        What I Want lessons Hard to play? Try these video lessons and learn fast What I Want lessons
        
↑ Back to top | Tablatures and chords for acoustic guitar and electric guitar, ukulele, drums are parodies/interpretations of the original songs. You may use it for private study, scholarship, research or language learning purposes only