» » »

Autopilot Off - Nothing Frequency Tabs

Artists:  A B C D E F G H I J K L M N O P Q R S T U V W X Y Z # 

Nothing Frequency Tabs

(ver. 2) Click to play this song!
Autopilot Off
 Rating:
4/5 (4 votes)

 Nothing Frequency lessons Tabs too difficult? Try these video lessons and learn fast
 
                Autopilot OFF RULES

----------------------------------------------
----------------------------------------------
----7-----------------------------------------
----7-7--5--9-7-------------------------------
----5-7--5--9-7-------------------------------
------5--3--7-5-------------------------------
Verse is just 
----------------------------------------------
----------------------------------------------
---7------------------------------------------
---7------5-----------------------------------
---5------5-----------------------------------
------and 3-----------------------------------

chorus is intro.  I only tabbed out guitar 1.  The bridge you can find out on your own and the prechorus i was to lazy to type.  but u can find prechorus and bridge easy.  good luck
            
Submit corrections


        Nothing Frequency lessons Hard to play? Try these video lessons and learn fast Nothing Frequency lessons
        
↑ Back to top | Tablatures and chords for acoustic guitar and electric guitar, ukulele, drums are parodies/interpretations of the original songs. You may use it for private study, scholarship, research or language learning purposes only