» » »

Autopilot Off - Missing The Innocence Bass

Artists:  A B C D E F G H I J K L M N O P Q R S T U V W X Y Z # 

Missing The Innocence Bass

(ver. 1) Click to play this song!
Autopilot Off
 Rating:
3.6/5 (7 votes)

 Missing The Innocence lessons Tabs too difficult? Try these video lessons and learn fast
 
                intro
G|-----------------------|
D|-----------------------|
A|------------0000-------|
E|-0000-77-99------99-77-|

part 1
G|-------------|
D|-------------|
A|-------0-----|
E|-0-7-9---9-7-|

chorus
G|-------------------------------------|
D|------------764----------------------|
A|-------0000----7---------------------|
E|-99-77-----------0000-7777-5555-7777-|

end
G|---------------------|
D|---------------------|
A|-7777-----------0000-|
E|------7777-9999------|

order:
intro 4x
part 1 4x
intro 2x
part 1 4x
chorus 2x
part 1 4x
chorus 2x
end 8x
            
Submit corrections


        Missing The Innocence lessons Hard to play? Try these video lessons and learn fast Missing The Innocence lessons
        
↑ Back to top | Tablatures and chords for acoustic guitar and electric guitar, ukulele, drums are parodies/interpretations of the original songs. You may use it for private study, scholarship, research or language learning purposes only