» » »

Autopilot Off - Indebted Bass

Artists:  A B C D E F G H I J K L M N O P Q R S T U V W X Y Z # 

Indebted Bass

(ver. 1) Click to play this song!
Autopilot Off
 Rating:
4/5 (4 votes)

 Indebted  lessons Tabs too difficult? Try these video lessons and learn fast
 
                (1)
standard tuning and all that cr*p.. u know how it is

Intro
G ------------------------------------
D ------------------------------------
A --------------------5---------------
E ----0-----------------------5-------

Verse
G --------4-2-1-----------------------------------
D ----2-------------5-4-5-0---4-2-4---------------
A --------------3---------------------------------
E ----------------------------------00-000-000-000

Pre-Chorus
G ----------------------------------------------
D ------------4---4-5-4-------------------------
A ----3---5-5---5---------------3---2---5-------
E ----------------------0---3-------------------

Chorus
G -----------------------------------------
D -----------------------------------------
A ------------------5---------------3---5--
E ----0---3--5--0------5--0---3--5---------

Bridge
G -----------------------
D -----------------------
A ----11h12>11---7---9---
E -----------------------


Order
Intro x4
Verse x 2
Pre-Chorus x1
Chorus x 1
Verse x 2
Pre-Chorus x1
Chorus x 1
Bridge x2
Pre-Chorus x1
Chorus Until End



yeah i think thats the way it goes with the right order and ***. any problems, IM me at paranoidclown
            
Submit corrections


        Indebted  lessons Hard to play? Try these video lessons and learn fast Indebted  lessons
        
↑ Back to top | Tablatures and chords for acoustic guitar and electric guitar, ukulele, drums are parodies/interpretations of the original songs. You may use it for private study, scholarship, research or language learning purposes only