» » »

Autopilot Off - Indebted Tabs

Artists:  A B C D E F G H I J K L M N O P Q R S T U V W X Y Z # 

Indebted Tabs

(ver. 1) Click to play this song!
Autopilot Off
 Rating:
4/5 (4 votes)

 Indebted lessons Tabs too difficult? Try these video lessons and learn fast
 
                

Key:
x=left hand mute
~=let ring
/-slide 




Intro - Guitar 1 4x
e|-----------------------------------------------------------------------------|
B|-----------------------------------------------------------------------------|
G|13-13-13-13-13---9-9-9---13-13-13-13-13---9-9-9---14-14-14-14-14-14-14-14-14-|
D|x--x--x--x--x----x-x-x---x--x--x--x--x----x-x-x---x--x--x--x--x--x--x--x--x--|
A|11-11-11-11-11---7-7-7---11-11-11-11-11---7-7-7---12-12-12-12-12-12-12-12-12-|
E|-----------------------------------------------------------------------------|

e|---------------------------------------------------------------------------|
B|---------------------------------------------------------------------------|
G|7-7-7-7---9-9-9------------------------------------------------------------|
D|x-x-x-x---x-x-x------------------------------------------------------------|
A|5-5-5-5---7-7-7------------------------------------------------------------|
E|---------------------------------------------------------------------------|


Intro - Guitar 2 4x
e|---------------------------------------------------------------------------|
B|---------------------------------------------------------------------------|
G|------------------------------7-7-7-7-7-7-7-7-7-7-7-7-7-7------------------|
D|2-2-2-2-2-2-2-2-2-2-2-2-2-2---7-7-7-7-7-7-7-7-7-7-7-7-7-7------------------|
A|2-2-2-2-2-2-2-2-2-2-2-2-2-2---5-5-5-5-5-5-5-5-5-5-5-5-5-5------------------|
E|0-0-0-0-0-0-0-0-0-0-0-0-0-0------------------------------------------------|


Verse -  Guitars 1 & 2   2x
e|---------------------------------------------------------------------------|
B|---------------------------------------------------------------------------|
G|--------------5~-----------7~----------------------------------------------|
D|2~------------5~-----------7~---------2-2---2-2-2---2-2-2---2-2-2---2-2----|
A|2~------------3~-----------5~---------2-2---2-2-2---2-2-2---2-2-2---2-2----|
E|0~------------------------------------0-0---0-0-0---0-0-0---0-0-0---0-0----|


Chorus - Guitars 1 & 2  3x
e|---------------------------------------------------------------------------|
B|---------------------------------------------------------------------------|
G|5-5-5-5-5---7-7-7-7-7-7----------------------------------------------------|
D|5-5-5-5-5---7-7-7-7-7-7---2-2-2-2-2----5-5-5-5-5-5-------------------------|
A|3-3-3-3-3---5-5-5-5-5-5---2-2-2-2-2----5-5-5-5-5-5-------------------------|
E|--------------------------0-0-0-0-0----3-3-3-3-3-3-------------------------|
 

      4th time
e|---------------------xxx-----------------------------------------------------|
B|---------------------xxx-----------------------------------------------------|
G|5-5-5-5-5----7-7-7-7-xxx-----------------------------------------------------|
D|5-5-5-5-5----7-7-7-7-xxx-----------------------------------------------------|
A|3-3-3-3-3----5-5-5-5-xxx-----------------------------------------------------|
E|---------------------xxx-----------------------------------------------------|


Intro - Guitar 1 2x
e|-----------------------------------------------------------------------------|
B|-----------------------------------------------------------------------------|
G|13-13-13-13-13---9-9-9---13-13-13-13-13---9-9-9---14-14-14-14-14-14-14-14-14-|
D|x--x--x--x--x----x-x-x---x--x--x--x--x----x-x-x---x--x--x--x--x--x--x--x--x--|
A|11-11-11-11-11---7-7-7---11-11-11-11-11---7-7-7---12-12-12-12-12-12-12-12-12-|
E|-----------------------------------------------------------------------------|

e|---------------------------------------------------------------------------|
B|---------------------------------------------------------------------------|
G|7-7-7-7---9-9-9------------------------------------------------------------|
D|x-x-x-x---x-x-x------------------------------------------------------------|
A|5-5-5-5---7-7-7------------------------------------------------------------|
E|---------------------------------------------------------------------------|


Intro - Guitar 2 2x
e|---------------------------------------------------------------------------|
B|---------------------------------------------------------------------------|
G|------------------------------7-7-7-7-7-7-7-7-7-7-7-7-7-7------------------|
D|2-2-2-2-2-2-2-2-2-2-2-2-2-2---7-7-7-7-7-7-7-7-7-7-7-7-7-7------------------|
A|2-2-2-2-2-2-2-2-2-2-2-2-2-2---5-5-5-5-5-5-5-5-5-5-5-5-5-5------------------|
E|0-0-0-0-0-0-0-0-0-0-0-0-0-0------------------------------------------------|


Verse -  Guitars 1 & 2   2x
e|---------------------------------------------------------------------------|
B|---------------------------------------------------------------------------|
G|--------------5~-----------7~----------------------------------------------|
D|2~------------5~-----------7~---------2-2---2-2-2---2-2-2---2-2-2---2-2----|
A|2~------------3~-----------5~---------2-2---2-2-2---2-2-2---2-2-2---2-2----|
E|0~------------------------------------0-0---0-0-0---0-0-0---0-0-0---0-0----|

Chorus - Guitars 1 & 2  3x
e|---------------------------------------------------------------------------|
B|---------------------------------------------------------------------------|
G|5-5-5-5-5---7-7-7-7-7-7----------------------------------------------------|
D|5-5-5-5-5---7-7-7-7-7-7---2-2-2-2-2----5-5-5-5-5-5-------------------------|
A|3-3-3-3-3---5-5-5-5-5-5---2-2-2-2-2----5-5-5-5-5-5-------------------------|
E|--------------------------0-0-0-0-0----3-3-3-3-3-3-------------------------|
 

      4th time
e|--------------------------------------------------------------------------|
B|--------------------------------------------------------------------------|
G|5-5-5-5-5----7-7-7-7-7-7--------------------------------------------------|
D|5-5-5-5-5----7-7-7-7-7-7--------------------------------------------------|
A|3-3-3-3-3----5-5-5-5-5-5--------------------------------------------------|
E|--------------------------------------------------------------------------|


Breakdown - Clean  Guitar 1 2x
e|---------------------------------------------------------------------------|
B|---------------------------------------------------------------------------|
G|13/-14--13~----13/-14--13---16~--------------------------------------------|
D|x-/-x---x-~----x-/-x---x----x-~--------------------------------------------|
A|11/-12--11~----11/-12--11---14~--------------------------------------------|
E|---------------------------------------------------------------------------|


Bridge
Guitar 1  4x
e|------------------------------------------------------------------------------------|
B|------------------------------------------------------------------------------------|
G|13/-14--13--13-13-13-13-13-13-13-13-13-13-13---9-9-9-9-9-9-9---11-11-11-11-11-11-11-|
D|x-/-x---x---x--x--x--x--x--x--x--x--x--x--x----x-x-x-x-x-x-x---x--x--x--x--x--x--x--|
A|11/-12--11--11-11-11-11-11-11-11-11-11-11-11---7-7-7-7-7-7-7---9--9--9--9--9--9--9--|
E|------------------------------------------------------------------------------------|


Bridge
Guitar 2 3x
e|---------------------------------------------------------------------------|
B|---------------------------------------------------------------------------|
G|--------------------------------5-5-5-5-5-5-5---7-7-7-7-7-7-7--------------|
D|2--2-2--2-2-2-2-2-2-2-2-2-2-2---5-5-5-5-5-5-5---7-7-7-7-7-7-7--------------|
A|2--2-2--2-2-2-2-2-2-2-2-2-2-2---3-3-3-3-3-3-3---5-5-5-5-5-5-5--------------|
E|0--0-0--0-0-0-0-0-0-0-0-0-0-0----------------------------------------------|

           4th time
e|--------------------------------------------------------xxxx--------------|
B|--------------------------------------------------------xxxx--------------|
G|--------------------------------5-5-5-5-5-5-5---7-7-7-7-xxxx--------------|
D|2--2-2--2-2-2-2-2-2-2-2-2-2-2---5-5-5-5-5-5-5---7-7-7-7-xxxx--------------|
A|2--2-2--2-2-2-2-2-2-2-2-2-2-2---3-3-3-3-3-3-3---5-5-5-5-xxxx--------------|
E|0--0-0--0-0-0-0-0-0-0-0-0-0-0---------------------------xxxx--------------|


Chorus - Guitars 1 & 2  3x
e|---------------------------------------------------------------------------|
B|---------------------------------------------------------------------------|
G|5-5-5-5-5---7-7-7-7-7-7----------------------------------------------------|
D|5-5-5-5-5---7-7-7-7-7-7---2-2-2-2-2----5-5-5-5-5-5-------------------------|
A|3-3-3-3-3---5-5-5-5-5-5---2-2-2-2-2----5-5-5-5-5-5-------------------------|
E|--------------------------0-0-0-0-0----3-3-3-3-3-3-------------------------|
 

      4th time
e|--------------------------------------------------------------------------|
B|--------------------------------------------------------------------------|
G|5-5-5-5-5----7-7-7-7-7-7--------------------------------------------------|
D|5-5-5-5-5----7-7-7-7-7-7---End ON:-2--------------------------------------|
A|3-3-3-3-3----5-5-5-5-5-5-----------2--------------------------------------|
E|-----------------------------------0--------------------------------------|

Rock On Dudes!
            
Submit corrections


        Indebted lessons Hard to play? Try these video lessons and learn fast Indebted lessons
        
↑ Back to top | Tablatures and chords for acoustic guitar and electric guitar, ukulele, drums are parodies/interpretations of the original songs. You may use it for private study, scholarship, research or language learning purposes only