Home » A » Autopilot Off »

Autopilot Off - 12th Day Tabs

Artists:  A B C D E F G H I J K L M N O P Q R S T U V W X Y Z # 

12th Day Tabs

(ver. 2) Click to play this song!
Autopilot Off
 Rating:
4/5 (4 votes)
                (Intro)
different sites..). Hope ya like it.

-------------------------------------------------------------------
Tuning: Drop D
-------------------------------------------------------------------

~:slide

Intro
e|-------------------------------------------------------------------------|
B|------9-------9------9------9-------9-------9-------9-------9------------|
G|----8-------8------8------8-------8-------8-------8-------8--------------|
D|--6-----6-6----6-6----6-6-----6-6-----6-6-----6-6-----6-6----------------|
A|-------------------------------------------------------------------------|
D|-------------------------------------------------------------------------|

-----

e|---------------------------| x2  e|---------------------------| x2
B|---------------------------|     B|---------------------------|
G|---------8-9-8-8-9-9~11-11-|     G|--9-9-9--8-9-8-8-9-9~11-11-|
D|--6-6-6--x-x-x-x-x-x-x--x--|     D|--9-9-9--x-x-x-x-x-x-x--x--|
A|--6-6-6--6-7-6-6-7-7~9--9--|     A|--7-7-7--6-7-6-6-7-7~9--9--|
D|--6-6-6--------------------|     D|---------------------------|

x2
-----


e|------------------------|
B|------------------------|
G|------------------------|
D|9-9-9-9-9-9-9-9-9-9-9-9-|
A|9-9-9-9-9-9-9-9-9-9-9-9-|
D|9-9-9-9-9-9-9-9-9-9-9-9-|

-------------------------------------------------------------------

I doubt it's perfect as I'm still just learning and this is my first time tabbing so 
feedback is accepted..
            
Submit corrections

↑ Back to top | Tablatures and chords for acoustic guitar and electric guitar, ukulele, drums are parodies/interpretations of the original songs. You may use it for private study, scholarship, research or language learning purposes only