» » »

Authority Zero - One More Minute Tabs

Artists:  A B C D E F G H I J K L M N O P Q R S T U V W X Y Z # 

One More Minute Tabs

(ver. 3) Click to play this song!
Authority Zero
 Rating:
4/5 (4 votes)

 One More Minute lessons Tabs too difficult? Try these video lessons and learn fast
 
                One More Minute

fairly simple...the chords are right, the solo is so/so, I haven't really played this song all that much to develop a feel for it, but this should be able to get you through.

B:xx4432
G:xx5433
F#:xx4322
E:xxx987
D:xx0775

intro/verse/chorus: B  G   F#  

prechorus: E  D  G  (play that for four, but on the fourth, add the F# at the end (before going into the chorus)

solo (its a bit hard to tell cause of that *** guitar and its wah noises):
part one (play twice):               
e-----------------------------------------------------------------------------------
b-----------------------------------------------------------------------------------
g-------------------------------------------------4--4--2--0-----2--2--0---------
d-----2--2--2--0--0--0------------0--0--0--2---------------0------------4--5--
a------------------------------------------------------------------------------------
e--------------------------3--3--3--------------------------------------------------

part 2 (notes are picked more than I indicated, listen to it to figure it out.  Last high part gets lost in the song, but I did my best to figure it out):
e----12--12--12--10-10-10---------------------------------------------------------------------
b--------------------------------12--10b11-----------------------------------------------------
g-----------------------------------------------12--9--9--12--9--12--9--9--12--9--12--9--0
d----------------------------------------------------------------------------------------------------
a----------------------------------------------------------------------------------------------------
e----------------------------------------------------------------------------------------------------

after this, repeat part one, then play the F3 and go back into the chorus.

well, that's it.  I think its mostly right (except for the end of the solo), as always listen through the song to get it right.



lyrics:
I'm going back to where I came from 
So far away, but not so far from home 
Where I lay my head down by the sea
I'm going back to where we'd go 
So far away,but not so far from home
Where I'd rest, where I'd lay so peacefully

But bye the way,
I want a break, and want to put this stress aside
But above all things I wanna lay by the oceanside
The ocean waves, no other, get away
Well I'm finding!
Oh no,my daily worries want to drift away, Fine!
Dying and trying just to find some sort of peace of mind
Now's the time, to get away, I'm going away!

No other place to go, I've got to get away, let's get away! Away...

One more minute, the beaches San Diego,
One more minute!
One more minute, the beaches Mexico
One more minute!
One more minute, we kick it back pool side
One more minute, and we're down bye the ocean side
One more minute, One more minute, One more minute!

So far away,and dowdy on the beach
I want to clear my head and break it in the warm sunshine
Want to relay relaxation
With the horizon straight away
And a ring around my arm from a long day, 
of making angels in the sand
Picifico in my hand!

No other place to go, I've got to get away, let's get away! Away...

One more minute, the beaches San Diego,
One more minute!
One more minute, the beaches Mexico
One more minute!
One more minute, we kick it back pool side
One more minute, and we're down bye the ocean side
One more minute, One more minute, One more minute!

The sunshine in my eyes, and the flamenco in the skies
The only way you'll ever know, is to go, is to go!

Away...

One more minute, the beaches San Diego,
One more minute!
One more minute, the beaches Mexico
One more minute!
One more minute, we kick it back pool side
One more minute, and we're down bye the ocean side
One more minute, One more minute, One more minute!

Shed the light all day, Shed the light all day, Shed the light all day,
Shed the light all day, Shed the light all day, Shed the light all day,
Shed the light all day, Shed the light all day, Shed the light all day,
Shed the light all day, Shed the light all day, Shed the light all day,
Shed the light all day!

One more minute, the beaches San Diego,
One more minute!
One more minute, the beaches Mexico
One more minute!
One more minute, we kick it back pool side
One more minute, and we're down bye the ocean side
One more minute, One more minute, One more minute!

Shed the light all day
            
Submit corrections


        One More Minute lessons Hard to play? Try these video lessons and learn fast One More Minute lessons
        
↑ Back to top | Tablatures and chords for acoustic guitar and electric guitar, ukulele, drums are parodies/interpretations of the original songs. You may use it for private study, scholarship, research or language learning purposes only