» » »

Authority Zero - 1234 Tabs

Artists:  A B C D E F G H I J K L M N O P Q R S T U V W X Y Z # 

1234 Tabs

(ver. 1) Click to play this song!
Authority Zero
 Rating:
4/5 (4 votes)

 1234 lessons Tabs too difficult? Try these video lessons and learn fast
 
                |===================================|
|                                   |
|              12:34                |
|         Authority Zero            |
|                                   |
|===================================|

Check out my tab of *Everyday - Authority Zero* ;)

++++Update 21st May 2010: I just realized that I tabbed the verse almost completely
and the chorus partly wrong, as well as the start of the solo (OK, so I sucked at tabbing
song, but everyone makes mistakes :D) so if you've looked at this tab before then I 
you look at my update++++

Couldn't find the whole song tabbed, decided to give it a shot :D
In all honesty, I can't hit every note that's written down, I've only been playing for a 
:S
So of course, any corrections are strongly appreciated,

If you know any good songs that you think I should tab, please give us a yell in the 
:D

Enjoy!!

Standard Tuning (eBGDAE)

h = hammer on/off
p = pull off
x = strum deadened string
/ = slide
b = bend
PM = palm mute

======================================


Intro
Part 1  x4
e|----12----12----12----12----10----10----10----10---------|
B|-------12----12----12----12----12----12----12----12------|
G|---------------------------------------------------------|
D|---------------------------------------------------------|
A|---------------------------------------------------------|
E|---------------------------------------------------------|

e|-----9----9----9----9----10----10----10----10------------|
B|-------10---10---10---10----12----12----12----12---------|
G|---------------------------------------------------------|
D|---------------------------------------------------------|
A|---------------------------------------------------------|
E|---------------------------------------------------------|


Part 2  x2
e|-------------------------------------------|
B|-------------------------------------------|
G|-------------------------------------------|
D|------9---9---9-7---7---7---7---7----------|
A|----7---7---7-----5---5---5---5---5--------|
E|-------------------------------------------|

e|-------------------------------------------|
B|-------------------------------------------|
G|-------------------------------------------|
D|----5---5---5---7---7---7---7---7----------|
A|------3---3---3---5---5---5---5---5--------|
E|-------------------------------------------|


Verse
Part 1  x3
e|----------------------------------------------------------------------|
B|----------------------------------------------------------------------|
G|---9--------12--------------2--------5-----9--9--9--9-12--12---9--9---|
D|---9-999999-12-121212121212-2-222222-5-555-9--9--9--9-12--12---9--9---|
A|---7-777777-10-101010101010-0-222222-3-333-7777777777-10101010-7777---|
E|----------------------------------------------------------------------|
PM     ......    . . . . . .    ......   ...  .. .. ..    .   .   ..

Part 2
e|---------------------------------------------------------------------|
B|---------------------------------------------------------------------|
G|---9--------12--------------2--------5-----9--9--9--9-12--11--9--7---|
D|---9-999999-12-121212121212-2-222222-5-555-9--9--9--9-12--11--9--7---|
A|---7-777777-10-101010101010-0-222222-3-333-7777777777-10--9---7--5---|
E|---------------------------------------------------------------------|
PM     ......    . . . . . .    ......   ...  .. .. ..    .   .   ..
Note: the power chords at the end of Part 2 (10-9-7-5) are in time with "Can you tell me?"


Chorus (same as Part 2 of the Intro)
e|-------------------------------------------|
B|-------------------------------------------|
G|-------------------------------------------|
D|------9---9---9-4---4---4---4---4----------|
A|----7---7---7-----5---5---5---5---5--------|
E|-------------------------------------------|

e|-------------------------------------------|
B|-------------------------------------------|
G|-------------------------------------------|
D|----2---2---2---4---4---4---4---4----------|
A|------3---3---3---5---5---5---5---5--------|
E|-------------------------------------------|

*Verse 2*

*Chorus 2*


Solo
(Now that I've fixed it, it sounds pretty much 100% right)
A second guitar plays the Verse in the background.
e|---10---------------------------------|
B|------12--10-12-10--10-12-10----------|
G|-----------------------------12-9-----|
D|--------------------------------------|
A|--------------------------------------|
E|--------------------------------------|

e|------------------------------------|
B|--------------------------/15----12-| (A double-tracking holds the
G|--------12-----12-----12------------|  last note on this bar)
D|---/14b----14b----14b---------------|
A|------------------------------------|
E|------------------------------------|

    |-----------------------------------| x8
e|-------------/17-15-17-19-17-19-22----|
B|---15p14p12---------------------------|
G|--------------------------------------|
D|--------------------------------------|
A|--------------------------------------|
E|--------------------------------------|

*Intro (Part 1)*  x4

"Can you, can you tell me!" w/ drums

*Chorus* x4

*Intro (Part 1)*


Hope that helped :) Please rate and comment! :D
            
Submit corrections


        1234 lessons Hard to play? Try these video lessons and learn fast 1234 lessons
        
↑ Back to top | Tablatures and chords for acoustic guitar and electric guitar, ukulele, drums are parodies/interpretations of the original songs. You may use it for private study, scholarship, research or language learning purposes only