Home » A » Augustana »

Augustana - Stars And Boulevards Tabs

Artists:  A B C D E F G H I J K L M N O P Q R S T U V W X Y Z # 

Stars And Boulevards Tabs

(ver. 2) Click to play this song!
Augustana
-------------------------------------------------------------------------------
                             Stars and Boulevards - Augustana
-------------------------------------------------------------------------------

(Electric-Acoustic Gutiar 1)  Tuning: E A D G B e (Standard) 
(Electric Guitar 2)  Tuning: E A D G B e (Standard) (w/ effects)


INTRO
Guitar 1 (acoustic)
e|--0-0--0-0-0--3-3--3-2-0-X-|
B|--1-1--1-1-1--3-3--3-3-3-3-|
G|--2-2--0-0-0--0-0--2-2-2-2-| X 4 for Intro
D|--2-2--2-2-2--0-0--0-0-0-0-|
A|--0-0--3-3-3--2-2----------|
E|--------------3-3----------|


Guitar 2
e|-----------------------------------------|
B|---------------------8-8-8-8-8-7-5h7-----|
G|---2/4--4/7--7\5--2--7-7-7-7-7-7-7-7-----| X 2
D|-----------------------------------------|
A|-----------------------------------------|
E|-----------------------------------------|



VERSE
Guitar 1 (electric-acoustic [Clean])
e|--0-0--0-0-0--3-3--3-2-0-X-|
B|--1-1--1-1-1--3-3--3-3-3-3-|
G|--2-2--0-0-0--0-0--2-2-2-2-| X 4
D|--2-2--2-2-2--0-0--0-0-0-0-|
A|--0-0--3-3-3--2-2----------|
E|--------------3-3----------|


Guitar 2
e|-----------------------------------------|
B|---------------------8-8-8-8-8-7-5h7-----|
G|---2/4--4/7--7\5--2--7-7-7-7-7-7-7-7-----| X 2
D|-----------------------------------------|
A|-----------------------------------------|
E|-----------------------------------------|


Chorus
Guitar 1 and 2
e|--0-0--0-0-0--3-3--3-2-0-X-|
B|--1-1--1-1-1--3-3--3-3-3-3-|
G|--2-2--0-0-0--0-0--2-2-2-2-| X 4
D|--2-2--2-2-2--0-0--0-0-0-0-|
A|--0-0--3-3-3--2-2----------|
E|--------------3-3----------|

Guitar 2
e|-----------------------------------------|
B|---------------------8-8-8-8-8-7-5h7-----|
G|---2/4--4/7--7\5--2--7-7-7-7-7-7-7-7-----| X 2
D|-----------------------------------------|
A|-----------------------------------------|
E|-----------------------------------------|


Last Chorus
Guitar 1 and 2
e|--0-0--0-0-0--3-3--3-2-0-X-|
B|--1-1--1-1-1--3-3--3-3-3-3-|
G|--2-2--0-0-0--0-0--2-2-2-2-| X 8
D|--2-2--2-2-2--0-0--0-0-0-0-|
A|--0-0--3-3-3--2-2----------|
E|--------------3-3----------|


e|-----------------------------------------|
B|-----------------------------------------|
G|---2/4--4/7--7\5--2---0/2--2/7--7\5--2---| X 2
D|-----------------------------------------|
A|-----------------------------------------|
E|-----------------------------------------|

I don't know If my order is correct but listen to the song I'm sure you'll get the general idea

| /  slide up
| \  slide down
| h  hammer-on
| x  Mute note
===============================================================================
            
Submit corrections

↑ Back to top | Tablatures and chords for acoustic guitar and electric guitar, ukulele, drums are parodies/interpretations of the original songs. You may use it for private study, scholarship, research or language learning purposes only