Home » A » Augustana »

Augustana - Bullets Tabs

Artists:  A B C D E F G H I J K L M N O P Q R S T U V W X Y Z # 

Bullets Tabs

(ver. 1) Click to play this song!
Augustana

Band: Augustana



intro-2x
|-------------------------------------------------------------------|
|-------------------------------------------------------------------|
|---55/7~--8\7~--7\5~--3~-------------------------------------------|
|---55/7~--8\7~--7\5~--3~-------------------------------------------|
|---33/5~--6\5~--5\3~--1~-------------------------------------------|
|-------------------------------------------------------------------|

verse-1x                                verse continued-2x
|--------------------------------------|-----------------------------|
|--------------------------------------|-----------------------------|
|--77~----5~--3~------77~--5~--7~---3~-|--77~--5~--3~----------------|
|--77~----5~--3~------77~--5~--7~---3~-|--77~--5~--3~----------------|
|--55~----3~--1~------55~--3~--5~---1~-|--55~--3~--1~----------------|
|--------------------------------------|-----------------------------|

interlude-1x

|-------3-------1-------3-------1-----------------------------------|
|--------3-------1-------3-------1----------------------------------|
|-----5---5---3---3---5---5---3---3---------------------------------|
|----5-------3-------5-------3--------------------------------------|
|-------------------------------------------------------------------|
|-------------------------------------------------------------------|

verse-4x
|-------------------------------------------------------------------|
|-------------------------------------------------------------------|
|----77~--5~--3~----------------------------------------------------|
|----77~--5~--3~----------------------------------------------------|
|----55~--3~--1~----------------------------------------------------|
|-------------------------------------------------------------------|


play interlude-4x


chorus-4x            2x
|------------------|------------------------------------------------|
|------------------|------------------------------------------------|
|--7--33--55--7777-|--7777777777777777--3333333333333333------------|
|--7--33--55--7777-|--7777777777777777--3333333333333333------------|
|--5--11--33--5555-|--5555555555555555--1111111111111111------------|
|------------------|------------------------------------------------|

for the verse after the chorus, play the 'chorus continued' above the 'interlude'.

the second chorus is the same.

solo-2x                      1x (13 and 11's)
|-6---6-8-8br-8-6-6666666-|---13-13-13131313131313--111111-111111---|
|-----8---------------------|---------------------------------------|
|---------------------------|---------------------------------------|
|---------------------------|---------------------------------------|
|---------------------------|---------------------------------------|
|---------------------------|---------------------------------------|

chorus again then:

end on-
|-----|
|-----|
|-8~--|
|-8~--|
|-6~--|
|-----|
            
Submit corrections

↑ Back to top | Tablatures and chords for acoustic guitar and electric guitar, ukulele, drums are parodies/interpretations of the original songs. You may use it for private study, scholarship, research or language learning purposes only