Home » A » At The Gates »

At The Gates - Primal Breath Tabs

Artists:  A B C D E F G H I J K L M N O P Q R S T U V W X Y Z # 

Primal Breath Tabs

(ver. 2) Click to play this song!
At The Gates
#------------------------------------------------------------------------------##

                                  PRIMAL BREATH
                           As recorded by At The Gates
           (From the 1993 Album WITH FEAR I KISS THE BURNING DARKNESS)

Words and Music by At The Gates

Gtr I (B E A D F# B) - 'Distorted; panned to right'
Gtr II (B E A D F# B) - 'Distorted; panned to left'
Gtr III (B E A D F# B) - 'Distorted; centred'

  Q.=115     Start at low volume and fade in until fifth repeat.
  N.C.
 4/8          6/8
  Gtr I
   TP TP          PM|           TP
   E  Q.       E  E E E E  E    H.
|----------||----------------|-----------------|
|----------||o---------------|-----------------|
|----15----||----------------|--9--------------|
|-11-------||----------------|-----------------|
|----------||o-7------7-9-10-|-----------------|
|----------||-----0-0--------|-----------------|
|
| Gtr II
|  TP          TP               TP
|  E  Q.       H.              +Q.   Q     +E
|----------||----------------|-----------------|
|----------||o---------------|-----------------|
|----15\---||----------------|-----------------|
|-11-------||--9-------------|-(9)---9b10r=(9)-|
|----------||o---------------|-----------------|
|----------||----------------|-----------------|
    Note is tremolo picked on third  *
  repeat with no bend, and is not bent on fourth repeat.

     PM|           TP   TP         PM|            TP     TP
  E  E E E E  E    Q.   Q.      E  E E E E  E     Q.     Q.
|---------------|------------|----------------|----------------|
|---------------|------------|----------------|----------------|
|---------------|--9----7----|----------------|--11------------|
|---------------|------------|----------------|---------10-----|
|-7------7-9-10-|------------|--7------7-9-10-|----------------|
|----0-0--------|------------|-----0-0--------|----------------|
|
| TP               TP   ~~      TP                TP
| H.              +Q.   Q.      H.               +Q.    +Q.
|---------------|------------|----------------|----------------|
|---------------|------------|----------------|----------------|
|---------------|------------|----------------|----------------|
|-8-------------|-(8)---8----|----------------|----------------|
|---------------|------------|-10-------------|-(10)---(10)\---|
|---------------|------------|----------------|----------------|


  1.,2.,3.,4.                    5.
    PM|           TP  TP TP        TP               TP
  E E E E E  E    Q   E  Q.    5x  H.              +Q.      +Q.
|--------------|---------------||---------------|------------------||
|--------------|--------------o||---------------|------------------||
|--------------|--------15-----||-15------------|-(15)-----(15)\---||
|--------------|-12--11--------||---------------|------------------||
|-7-----7-9-10-|--------------o||---------------|------------------||
|---0-0--------|---------------||---------------|------------------||
|
|   PM|   PM|     TP  TP              PM|   PM|     TP   TP
| E E E E E  E    Q   E  Q.    5x  E  E E E E E     Q    E   Q.
|--------------|---------------||---------------|------------------||
|--------------|--------------o||---------------|------------------||
|--------------|--------15\----||---------------|-----------15\----||
|--------------|-12--11--------||---------------|--12---11---------||
|-7-----7------|--------------o||--7------7-----|------------------||
|---0-0---0--0-|---------------||-----0-0---0-0-|------------------||


  Q.=110
  TP    PM|    TP           TP    PM|   TP         TP    PM|
  H     E E    H.           H     E E   H.         H     E E
|-----------|-------------|-----------|---------|------------|
|-----------|-------------|-----------|---------|------------|
|-----------|-------------|-----------|---------|------------|
|-----------|-------------|-----------|---------|------------|
|-2---------|--3----------|-2---------|-3-------|--2---------|
|-------0-0-|-------------|-------0-0-|---------|--------0-0-|
|
| TP           TP    TP     TP          TP         TP
| H.          +Q.    Q.     H.          H.        +H.
|-----------|-------------|-----------|---------|------------|
|-----------|-------------|-----------|---------|------------|
|-----------|-------------|-----------|---------|------------|
|-9---------|-(9)---10----|-9---------|-7-------|-(7)--------|
|-----------|-------------|-----------|---------|------------|
|-----------|-------------|-----------|---------|------------|


   TP           TP       PM|   TP               TP
   H.           H        E E   H.               H.
|------------|---------------|----------------|-------|
|------------|---------------|----------------|-------|
|------------|---------------|----------------|-------|
|------------|---------------|----------------|-------|
|--3---------|--2------------|-5--------------|-4-----|
|------------|-----------0-0-|----------------|-------|
|
|  TP   TP      TP    ~~~      TP
| +Q.   Q.      Q.    Q.       Q.   Q     +E    H.
|------------|---------------|----------------|-------|
|------------|---------------|----------------|-------|
|------------|---------------|----------------|-------|
|-(7)---9----|-------12------|----------------|-------|
|------------|-10------------|-9----9b10r=(9)-|-9-----|
|------------|---------------|----------------|-------|


  TP    PM|    TP           TP    PM|   TP         TP    PM|
  H     E E    H.           H     E E   H.         H     E E
|-----------|-------------|-----------|---------|------------|
|-----------|-------------|-----------|---------|------------|
|-----------|-------------|-----------|---------|------------|
|-----------|-------------|-----------|---------|------------|
|-2---------|--3----------|-2---------|-3-------|--2---------|
|-------0-0-|-------------|-------0-0-|---------|--------0-0-|
|
| TP           TP    TP     TP          TP         TP
| H.          +Q.    Q.     H.          H.        +H.
|-----------|-------------|-----------|---------|------------|
|-----------|-------------|-----------|---------|------------|
|-----------|-------------|-----------|---------|------------|
|-9---------|-(9)---10----|-9---------|-7-------|-(7)--------|
|-----------|-------------|-----------|---------|------------|
|-----------|-------------|-----------|---------|------------|


   TP           TP    TP     TP               TP
   H.           Q.    Q.     H.               H.
|------------|-------------|----------------|-------------|
|------------|-------------|----------------|-------------|
|------------|-------------|----------------|-------------|
|------------|-------------|----------------|-------------|
|--3---------|--2-----7----|-5--------------|-4-----------|
|------------|-------------|----------------|-------------|
|
|  TP   TP      TP    ~~~    TP
| +Q.   Q.      Q.    Q.     Q.   Q     +E    Q.     Q.
|------------|-------------|----------------|-------------|
|------------|-------------|----------------|-------------|
|------------|-------------|----------------|-------------|
|-(7)---9----|-------12----|----------------|-------------|
|------------|-10----------|-9----9b10r=(9)-|-9-----------|
|------------|-------------|----------------|------/12\---|


  Q.=120
   TP         TP   TP     TP   TP  TP   TP   TP
   H.         Q.   Q.     Q.   Q   E    Q.   Q.
|----------|------------|------------|------------|
|----------|------------|------------|------------|
|----------|------------|------------|------------|
|----------|------------|-9----7--12-|-10----9----|
|-10-------|--9----7----|------------|------------|
|----------|------------|------------|------------|
|
|  TP         TP   TP     TP            TP
|  H.         Q.   Q.     H.           +H.
|----------|------------|------------|------------|
|----------|------------|------------|------------|
|----------|------------|------------|------------|
|--9-------|-12----7----|------------|------------|
|----------|------------|-7----------|-(7)--------|
|----------|------------|------------|------------|


   TP         TP   TP      TP       TP     TP    TP
   H.         Q.   Q.      Q.       Q.     Q.    Q.
|----------|------------|----------------|------------|
|----------|------------|----------------|------------|
|----------|------------|----------12----|------12----|
|----------|------------|-10-------------|-9----------|
|-10-------|--9----7----|----------------|------------|
|----------|------------|----------------|------------|
|
|  TP         TP   ~~      PM    PM
|  H.         Q.   Q.      E  E  E  Q.     H.
|----------|------------|----------------|------------|
|----------|------------|----------------|------------|
|----------|------------|----------------|------------|
|--9-------|-12----7----|----------------|------------|
|----------|------------|-10----10-10----|-7----------|
|----------|------------|----------------|------------|


   TP         TP   TP     TP   TP  TP   TP   TP
   H.         Q.   Q.     Q.   Q   E    Q.   Q.
|----------|------------|------------|--------------|
|----------|------------|------------|--------------|
|----------|------------|------------|--------------|
|----------|------------|-9----7--12-|-10----9------|
|-10-------|--9----7----|------------|--------------|
|----------|------------|------------|--------------|
|
|  TP         TP   TP                        PM---|
|  H.         Q.   Q.     H.           +Q.   E  E E
|----------|------------|------------|--------------|
|----------|------------|------------|--------------|
|----------|------------|------------|--------------|
|--9-------|-12----7----|------------|--------------|
|----------|------------|-7----------|-(7)---7--7-7-|
|----------|------------|------------|--------------|


   TP         TP   TP      TP    TP     TP    TP
   H.         Q.   Q.      Q.    Q.     Q.    Q.
|----------|------------|-------------|------------|
|----------|------------|-------------|------------|
|----------|------------|-------12----|------12----|
|----------|------------|-10----------|-9----------|
|-10-------|--9----7----|-------------|------------|
|----------|------------|-------------|------------|
|
|  TP         TP   ~~
|  H.         Q.   Q.      H.           H.
|----------|------------|-------------|------------|
|----------|------------|-------------|------------|
|----------|------------|-------------|------------|
|--9-------|-12----7----|-------------|------------|
|----------|------------|-10----------|-7----------|
|----------|------------|-------------|------------|


   TP         TP   TP     TP   TP  TP   TP   TP
   H.         Q.   Q.     Q.   Q   E    Q.   Q.
|----------|------------|------------|------------|
|----------|------------|------------|------------|
|----------|------------|------------|------------|
|----------|------------|-9----7--12-|-10----9----|
|-10-------|--9----7----|------------|------------|
|----------|------------|------------|------------|
|
|  TP         TP   TP     TP            TP
|  H.         Q.   Q.     H.           +H.
|----------|------------|------------|------------|
|----------|------------|------------|------------|
|----------|------------|------------|------------|
|--9-------|-12----7----|------------|------------|
|----------|------------|-7----------|-(7)--------|
|----------|------------|------------|------------|


   TP         TP   TP      TP    TP     TP    TP
   H.         Q.   Q.      Q.    Q.     Q.    Q.
|----------|------------|-------------|------------|
|----------|------------|-------------|------------|
|----------|------------|-------12----|------12----|
|----------|------------|-10----------|-9----------|
|-10-------|--9----7----|-------------|------------|
|----------|------------|-------------|------------|
|
|  TP         TP   ~~
|  H.         Q.   Q.      H.           Q.    Q.
|----------|------------|-------------|------------|
|----------|------------|-------------|------------|
|----------|------------|-------------|------------|
|--9-------|-12----7----|-------------|------------|
|----------|------------|-10----------|-7----------|
|----------|------------|-------------|------12\---|


  Q.=110
  TP    PM|    TP           TP    PM|   TP         TP    PM|
  H     E E    H.           H     E E   H.         H     E E
|-----------|-------------|-----------|---------|------------|
|-----------|-------------|-----------|---------|------------|
|-----------|-------------|-----------|---------|------------|
|-----------|-------------|-----------|---------|------------|
|-2---------|--3----------|-2---------|-3-------|--2---------|
|-------0-0-|-------------|-------0-0-|---------|--------0-0-|
|
| TP           TP    TP     TP          TP         TP
| H.          +Q.    Q.     H.          H.        +H.
|-----------|-------------|-----------|---------|------------|
|-----------|-------------|-----------|---------|------------|
|-----------|-------------|-----------|---------|------------|
|-9---------|-(9)---10----|-9---------|-7-------|-(7)--------|
|-----------|-------------|-----------|---------|------------|
|-----------|-------------|-----------|---------|------------|


   TP           TP       PM|   TP               TP
   H.           H        E E   H.               H.
|------------|---------------|----------------|-------|
|------------|---------------|----------------|-------|
|------------|---------------|----------------|-------|
|------------|---------------|----------------|-------|
|--3---------|--2------------|-5--------------|-4-----|
|------------|-----------0-0-|----------------|-------|
|
|  TP   TP      TP    ~~~      TP
| +Q.   Q.      Q.    Q.       Q.   Q     +E    H.
|------------|---------------|----------------|-------|
|------------|---------------|----------------|-------|
|------------|---------------|----------------|-------|
|-(7)---9----|-------12------|----------------|-------|
|------------|-10------------|-9----9b10r=(9)-|-9-----|
|------------|---------------|----------------|-------|


  TP    PM|    TP           TP    PM|   TP         TP    PM|
  H     E E    H.           H     E E   H.         H     E E
|-----------|-------------|-----------|---------|------------|
|-----------|-------------|-----------|---------|------------|
|-----------|-------------|-----------|---------|------------|
|-----------|-------------|-----------|---------|------------|
|-2---------|--3----------|-2---------|-3-------|--2---------|
|-------0-0-|-------------|-------0-0-|---------|--------0-0-|
|
| TP           TP    TP     TP          TP         TP
| H.          +Q.    Q.     H.          H.        +H.
|-----------|-------------|-----------|---------|------------|
|-----------|-------------|-----------|---------|------------|
|-----------|-------------|-----------|---------|------------|
|-9---------|-(9)---10----|-9---------|-7-------|-(7)--------|
|-----------|-------------|-----------|---------|------------|
|-----------|-------------|-----------|---------|------------|


   TP           TP    TP     TP               TP
   H.           Q.    Q.     H.               H.
|------------|-------------|----------------|-------------||
|------------|-------------|----------------|-------------||
|------------|-------------|----------------|-------------||
|------------|-------------|----------------|-------------||
|--3---------|--2-----7----|-5--------------|-4-----------||
|------------|-------------|----------------|-------------||
|
|  TP   TP      TP    ~~~    TP
| +Q.   Q.      Q.    Q.     Q.   Q     +E    Q.     Q.
|------------|-------------|----------------|-------------||
|------------|-------------|----------------|-------------||
|------------|-------------|----------------|-------------||
|-(7)---9----|-------12----|----------------|-------------||
|------------|-10----------|-9----9b10r=(9)-|-9-----------||
|------------|-------------|----------------|------/12\---||


    Q=170
    $
   4/4                                                         3/4
    TP TP TP  TP   TP  TP  TP  TP   TP TP  TP TP   TP   TP TP   TP TP
    Q  Q  Q   Q    Q   Q   Q   Q    Q  Q   Q  Q    H    Q  Q    Q  H
||---------------|----------------|--------------|------------|----------||
||o--------------|----------------|--------------|------------|---------o||
||---------------|-7--------------|-------10--9--|------7--9--|----------||
||--9-----9--10--|----10----------|-7------------|-6----------|----------||
||o----7---------|---------7--10--|----8---------|------------|-7-------o||
||---------------|----------------|--------------|------------|----8-----||
|
|   TP             TP  TP           TP             TP           TP TP
|   W              Q   H.           W              W            Q  H
||---------------|----------------|--------------|------------|----------||
||o--------------|----------------|--------------|------------|---------o||
||---------------|----------------|--------------|------------|----------||
||---------------|----------------|--------------|------------|----------||
||o--------------|----------------|--------------|-7----------|---------o||
||--5------------|-5---7----------|-8------------|------------|-8--5-----||


    Q.=180
   9/8
     TP          TP       TP    TP         TP          TP      TP   TP
     H.         +Q.      +Q.   +H.         H.         +Q.      Q.   H.
||---------------------|----------------|--------------------|------------|
||o--------------------|----------------|--------------------|------------|
||---------------------|----------------|--------------------|------------|
||---------------------|----------------|--------------------|------------|
||o--7----------(7)----|-(7)---(7)------|--5----------(5)----|-7----8-----|
||---------------------|----------------|--------------------|------------|
|
|                         TP    TP                             TP   TP
|    Q   E Q  E  Q   E    Q.   +H.         Q   E Q  E  Q   E   Q.   H.
||---------------------|----------------|--------------------|------------|
||o--------------------|----------------|--------------------|------------|
||---------------------|----------------|--------------------|------------|
||--10---9-7-----7-----|----------------|-10---9-7-----7-----|------------|
||o-----------8------8-|--7----(7)------|-----------8------8-|-7----8-----|
||---------------------|----------------|--------------------|------------|


  TP          TP      TP       TP     TP            TP
  H.         +Q.      H.      +Q.     H.           +Q.
|-------------------|---------------|----------------------||
|-------------------|---------------|---------------------o||
|-------------------|---------------|----------------------||
|-------------------|---------------|----------------------||
|-------------------|---------------|-5------------(5)----o||
|-7----------(7)----|-8-------(8)---|----------------------||
|
| TP    TP            ~~~~~~~~~~~~            ~~~
| Q.    Q.    Q   E   H.      +Q.     Q    E  H.
|-------------------|---------------|----------------------||
|-------------------|---------------|-8---10--------------o||
|-7-----------------|-9-------(9)---|--------10------------||
|------10-----9---7-|---------------|----------------------||
|-------------------|---------------|---------------------o||
|-------------------|---------------|----------------------||


    Q=175
   11/8                    12/8
    TP      TP     TP       TP      TP     TP  TP
    H       H      Q.       H       H      Q   Q   5x
||------------------------|------------------------||
||o-----------------------|-----------------------o||
||------------------------|------------------------||
||------------------------|------------------------||
||o-----------------------|----------------7------o||
||--0-------2------3------|-5-------7----------8---||
|
|   E E E E Q  E E E  E E   E E E E Q  E E E E Q   5x
||------------------------|------------------------||
||o-----------------------|-----------------------o||
||------------------------|------------------------||
||--4-5-4--------4-5------|-4-5-4--------4-5-------||
||o-------7-6--7------7-6-|-------7-6--7-----7-6--o||
||------------------------|------------------------||


                                     (2nd time on D.S.) To Coda
   11/8                           12/8
    Gtr I
     TP        TP         TP        TP        TP        TP  TP
     H         H          Q.        H         H         Q   Q
||-------------------------------|------------------------------||
||o------------------------------|-----------------------------o||
||-------------------------------|------------------------------||
||-------------------------------|------------------------------||
||o------------------------------|----------------------7------o||
||---0---------2----------3------|--5---------7-------------8---||
|
|   Gtr II
|    E  E  E E Q   E  E   E  E E    E  E  E E Q   E E   E E Q
||-------------------------------|------------------------------||
||o------------------------------|-----------------------------o||
||-------------------------------|------------------------------||
||---4--5--4----------4---5------|--4--5--4---------4---5-------||
||o----------7-6---7---------7-6-|----------7-6---7-------7-6--o||
||-------------------------------|------------------------------||
|
|   Gtr III
|                         ~~~~                          ~~~
|    E  E  E E Q   E  E   Q.        E  E  E E Q   E E   H
||-------------------------------|------------------------------||
||o------------------------------|-----------------------------o||
||--11-12-11-9----12-11-/16------|-11-12-11-9----11-9-/12-------||
||-------------9-----------------|------------9-----------------||
||o------------------------------|-----------------------------o||
||-------------------------------|------------------------------||


    Q=160
                                                 D#5 E5  D#5
   4/4
    Gtr I
    TP TP  TP TP    TP    TP  TP    TP TP        TP  TP  TP
    Q  Q   Q  Q     H     Q   Q     Q  H.        Q   Q   H    3x
||---------------|---------------|-------------|--------------||
||o--------------|---------------|-------------|-------------o||
||--------10-----|---------------|-------------|--------------||
||-----7------8--|-11--------12--|-11----------|-6---7---6----||
||o-7------------|--------9------|-----8-------|-------------o||
||---------------|---------------|-------------|--------------||
|
|   Gtr II
|   TP TP     TP    TP    TP        TP TP
|   Q  H      Q    +H     H         Q  H.        Q   Q   H    3x
||---------------|---------------|-------------|--------------||
||o--------------|---------------|-------------|-------------o||
||---------------|---------------|-------------|--------------||
||-----7------8--|-(8)-----------|-----7-------|--------------||
||o-7------------|--------9------|--8----------|-6---7---6---o||
||---------------|---------------|-------------|-4---5---4----||


    Q=145
    N.C.
   6/4                    5/4
    Q  Q  Q  Q  Q  Q       Q  Q   Q  Q  Q
||-----------------------|------------------||
||o----------------------|-----------------o||
||--6--------------------|-9-----10-----7---||
||-----------------------|------------------||
||o----------8--8--7-----|-----------------o||
||-----5--5--------------|----8------6------||
|
|                  |-3-|
|   Q  Q  Q  Q  Q  E E E   Q  Q   Q  Q  Q
||-----------------------|------------------||
||o----------------------|-----------------o||
||--6--------------------|-9-----10-----7---||
||-----------------------|------------------||
||o----------8--8--7h8p7-|-----------------o||
||-----5--5--------------|----8------6------||


 6/4                         5/4
                                ~~~~
  H.        +H      E   E       H.         H
|---------------------------|--------------------|
|---------------------------|--------------------|
|---------------------------|--------------------|
|-7---------(7)-----5---7---|-/10----------8-----|
|---------------------------|--------------------|
|---------------------------|--------------------|
|
|                   |--3--|
| Q   Q  Q   Q   Q  E E   E     Q   Q   Q  Q  Q
|---------------------------|--------------------|
|---------------------------|--------------------|
|-6-------------------------|---9------10-----7--|
|---------------------------|--------------------|
|------------8---8--7h8p==7-|--------------------|
|-----5--5------------------|-------8------6-----|


 6/4                         5/4
  H.        +H      E   E     H.         H
|---------------------------|------------------|
|---------------------------|------------------|
|---------------------------|------------------|
|-7---------(7)-----5---7---|-5----------3-----|
|---------------------------|------------------|
|---------------------------|------------------|
|
|                   |--3--|
| Q   Q  Q   Q   Q  E E   E   Q   Q   Q  Q  Q
|---------------------------|------------------|
|---------------------------|------------------|
|-6-------------------------|-9------10-----7--|
|---------------------------|------------------|
|------------8---8--7h8p==7-|------------------|
|-----5--5------------------|-----8------6-----|


   6/4                    5/4
    Q  Q  Q  Q  Q  Q       Q  Q   Q  Q  Q
||-----------------------|------------------||
||o----------------------|-----------------o||
||--6--------------------|-9-----10-----7---||
||-----------------------|------------------||
||o----------8--8--7-----|-----------------o||
||-----5--5--------------|----8------6------||
|
|                  |-3-|
|   Q  Q  Q  Q  Q  E E E   Q  Q   Q  Q  Q
||-----------------------|------------------||
||o----------------------|-----------------o||
||--6--------------------|-9-----10-----7---||
||-----------------------|------------------||
||o----------8--8--7h8p7-|-----------------o||
||-----5--5--------------|----8------6------||


 6/4                         5/4
                                ~~~~
  H.        +H      E   E       H.         H
|---------------------------|--------------------|
|---------------------------|--------------------|
|---------------------------|--------------------|
|-7---------(7)-----5---7---|-/10----------8-----|
|---------------------------|--------------------|
|---------------------------|--------------------|
|
|                   |--3--|
| Q   Q  Q   Q   Q  E E   E     Q   Q   Q  Q  Q
|---------------------------|--------------------|
|---------------------------|--------------------|
|-6-------------------------|---9------10-----7--|
|---------------------------|--------------------|
|------------8---8--7h8p==7-|--------------------|
|-----5--5------------------|-------8------6-----|


 6/4                         5/4                3/4
                                                  ~~~
  H.        +H      E   E     H.         H        H.
|---------------------------|------------------|--------|
|---------------------------|------------------|--------|
|---------------------------|------------------|--------|
|-7---------(7)-----5---7---|-5----------3-----|-/7-----|
|---------------------------|------------------|--------|
|---------------------------|------------------|--------|
|
|                                                 ~~~
|                   |--3--|
| Q   Q  Q   Q   Q  E E   E   Q   Q   Q  Q  Q     H.
|---------------------------|------------------|--------|
|---------------------------|------------------|--------|
|-6-------------------------|-9------10-----7--|--6-----|
|---------------------------|------------------|--------|
|------------8---8--7h8p==7-|------------------|--------|
|-----5--5------------------|-----8------6-----|--------|


  Q=155
  E5           D5          A5          C5            B5
 4/4
  W            W           W            W             W
|------------|-----------|-----------|-------------|-------------------|
|------------|-----------|-----------|-------------|-------------------|
|------------|-----------|-----------|-------------|-------------------|
|------------|-----------|-7---------|-10----------|--9----------------|
|-7----------|-5---------|-5---------|--8----------|--7----------------|
|-5----------|-3---------|-----------|-------------|-------------------|
|
| TP    TP     TP   TP     TP   TP      TP      TP    TP    PM|   ~~~~
| H     H      H    H      H    H      +H.      Q     H     E E   Q
|------------|-----------|-----------|-------------|-------------------|
|------------|-----------|-----------|-------------|-------------------|
|------------|-----------|-----------|-------------|-------------------|
|------10----|-9---------|------7----|-(7)------9--|----------9-[10]---|
|-7----------|------7----|-8---------|-------------|-10----10----------|
|------------|-----------|-----------|-------------|-------------------|


  E5           D5          A5          C5         D5    Eb5
 4/4
  H     H      H    H      H    H       H      Q   Q     H      H
|------------|-----------|-----------|----------------|----------------|
|------------|-----------|-----------|----------------|----------------|
|------------|-----------|-----------|----------------|----------------|
|------------|-----------|-7----7----|-10-----10--12--|-13-----13------|
|-7-----7----|-5----5----|-5----5----|--8------8--10--|-11-----11------|
|-5-----5----|-3----3----|-----------|----------------|----------------|
|
| TP    TP     TP   TP     TP   TP      TP         TP    TP        TP
| H     H      H    H      H    H      +H.         Q     H.        Q
|------------|-----------|-----------|----------------|----------------|
|------------|-----------|-----------|----------------|----------------|
|------------|-----------|-----------|----------------|----------------|
|------10----|-9---------|------7----|-(7)---------9--|-10---------9---|
|-7----------|------7----|-8---------|----------------|----------------|
|------------|-----------|-----------|----------------|----------------|


  E5                            D5
  PM---------------------|      PM----|    PM----|
  S S S S S S S S  S S S S Q    S S S S Q  S S S S Q
|-----------------------------|-----------------------|
|-----------------------------|-----------------------|
|-----------------------------|-----------------------|
|-----------------------------|-----------------------|
|--------------------------7--|---------5----------5--|
|-5-5-5-5-5-5-5-5--5-5-5-5-5--|-3-3-3-3-3--3-3-3-3-3--|
|
| TP               TP           TP         TP
| H                H            H          H
|-----------------------------|-----------------------|
|-----------------------------|-----------------------|
|-----------------------------|-----------------------|
|-----------------10----------|-9---------------------|
|-7---------------------------|------------7----------|
|-----------------------------|-----------------------|


  A5                      C5                          B5
  PM----|    PM----|       PM-----|     PM----|        PM----|     PM-----|
  S S S S Q  S S S S Q     S  S S S  Q  S S S S  Q     S S S S Q   E E  E E
|-----------------------|---------------------------|-----------------------|
|-----------------------|---------------------------|-----------------------|
|-----------------------|---------------------------|-----------------------|
|---------7----------7--|-----------10----------10--|----------9------------|
|-5-5-5-5-5--5-5-5-5-5--|--8--8-8-8--8--8-8-8-8--8--|--7-7-7-7-7---2-2--2-2-|
|-----------------------|---------------------------|--------------0-0--0-0-|
|
| TP         TP            TP                    TP    TP          PM|  ~~
| H          H            +H.                    Q     H           E E  Q
|-----------------------|---------------------------|-----------------------|
|-----------------------|---------------------------|-----------------------|
|-----------------------|---------------------------|-----------------------|
|------------7----------|-(7)--------------------9--|----------------9-10---|
|-8---------------------|---------------------------|-10----------10--------|
|-----------------------|---------------------------|-----------------------|


  E5                       D5
     PM----|     PM----|      PM----|    PM----|
  Q  S S S S  Q  S S S S   Q  S S S S Q  S S S S
|------------------------|-----------------------|
|------------------------|-----------------------|
|------------------------|-----------------------|
|------------------------|-----------------------|
|-7-----------7----------|-5----------5----------|
|-5--5-5-5-5--5--5-5-5-5-|-3--3-3-3-3-3--3-3-3-3-|
|
| TP          TP           TP         TP
| H           H            H          H
|------------------------|-----------------------|
|------------------------|-----------------------|
|------------------------|-----------------------|
|------------10----------|-9---------------------|
|-7----------------------|------------7----------|
|------------------------|-----------------------|


                                D.S. al Coda
  A5          C5         D5    Eb5
  H    H       H      Q   Q     H      H
|-----------|----------------|---------------||
|-----------|----------------|---------------||
|-----------|----------------|---------------||
|-7----7----|-10-----10--12--|-13-----13-----||
|-5----5----|--8------8--10--|-11-----11-----||
|-----------|----------------|---------------||
|
| TP   TP      TP         TP    TP        TP
| H    H      +H.         Q     H.        Q
|-----------|----------------|---------------||
|-----------|----------------|---------------||
|-----------|----------------|---------------||
|------7----|-(7)---------9--|-10---------9--||
|-8---------|----------------|---------------||
|-----------|----------------|---------------||


  &
 6/8
  Gtr I
                              TP    PM|     TP             TP    PM|     TP
    H.         H.             H     E E     H.             H     E E     H.
|-----------|-------------|-------------|--------------|-------------|---------|
|-----------|-------------|-------------|--------------|-------------|---------|
|-----------|-------------|-------------|--------------|-------------|---------|
|-----------|-------------|-------------|--------------|-------------|---------|
|---5-------|--4----------|---2---------|---3----------|---2---------|---3-----|
|-----------|-------------|---------0-0-|--------------|---------0-0-|---------|
|
| Gtr II
|   TP         TP    TP       TP            TP    TP       TP            TP
|   H.         Q.    Q.       H.           +Q.    Q.       H.            H.
|-----------|-------------|-------------|--------------|-------------|---------|
|-----------|-------------|-------------|--------------|-------------|---------|
|-----------|-------------|-------------|--------------|-------------|---------|
|-----------|-------------|---9---------|--(9)---10----|---9---------|---7-----|
|---5-------|--4-----7----|-------------|--------------|-------------|---------|
|-----------|-------------|-------------|--------------|-------------|---------|
|
| Gtr III
|                             ~~~~~~~~~~~~~~~~~~~~~~~~~~~~~~~~~~~~~~~~~~~~~~
|   H.         Q.    Q.       H.           +H.            +H.           +H.
|-----------|-------------|-------------|--------------|-------------|---------|
|-----------|-------------|-------------|--------------|-------------|---------|
|-/14-------|-------14----|-/16---------|-(16)---------|-(16)--------|-(16)----|
|-----------|-12----------|-------------|--------------|-------------|---------|
|-----------|-------------|-------------|--------------|-------------|---------|
|-----------|-------------|-------------|--------------|-------------|---------|


  Gtr I
   TP    PM|    TP           TP       PM|   TP               TP
   H     E E    H.           H        E E   H.               H.
|------------|------------|---------------|----------------|-------|
|------------|------------|---------------|----------------|-------|
|------------|------------|---------------|----------------|-------|
|------------|------------|---------------|----------------|-------|
|--2---------|--3---------|--2------------|-5--------------|-4-----|
|--------0-0-|------------|-----------0-0-|----------------|-------|
|
| Gtr II
|  TP           TP   TP      TP    ~~~      TP
| +H.          +Q.   Q.      Q.    Q.       Q.   Q     +E    H.
|------------|------------|---------------|----------------|-------|
|------------|------------|---------------|----------------|-------|
|------------|------------|---------------|----------------|-------|
|-(7)--------|-(7)---9----|-------12------|----------------|-------|
|------------|------------|-10------------|-9----9b10r=(9)-|-9-----|
|------------|------------|---------------|----------------|-------|


  TP    PM|    TP           TP    PM|   TP         TP    PM|
  H     E E    H.           H     E E   H.         H     E E
|-----------|-------------|-----------|---------|------------|
|-----------|-------------|-----------|---------|------------|
|-----------|-------------|-----------|---------|------------|
|-----------|-------------|-----------|---------|------------|
|-2---------|--3----------|-2---------|-3-------|--2---------|
|-------0-0-|-------------|-------0-0-|---------|--------0-0-|
|
| TP           TP    TP     TP          TP         TP
| H.          +Q.    Q.     H.          H.        +H.
|-----------|-------------|-----------|---------|------------|
|-----------|-------------|-----------|---------|------------|
|-----------|-------------|-----------|---------|------------|
|-9---------|-(9)---10----|-9---------|-7-------|-(7)--------|
|-----------|-------------|-----------|---------|------------|
|-----------|-------------|-----------|---------|------------|


  TP           TP    TP     TP               TP
  H.           Q.    Q.     H.               H.
|-----------|-------------|----------------|-------|
|-----------|-------------|----------------|-------|
|-----------|-------------|----------------|-------|
|-----------|-------------|----------------|-------|
|-3---------|--2-----7----|-5--------------|-4-----|
|-----------|-------------|----------------|-------|
|
| TP   TP      TP    ~~~    TP
| Q.   Q.      Q.    Q.     Q.   Q     +E    H.
|-----------|-------------|----------------|-------|
|-----------|-------------|----------------|-------|
|-----------|-------------|----------------|-------|
|-7----9----|-------12----|----------------|-------|
|-----------|-10----------|-9----9b10r=(9)-|-9-----|
|-----------|-------------|----------------|-------|


  Q.=120
   TP         TP   TP     TP   TP  TP   TP   TP
   H.         Q.   Q.     Q.   Q   E    Q.   Q.
|----------|------------|------------|------------|
|----------|------------|------------|------------|
|----------|------------|------------|------------|
|----------|------------|-9----7--12-|-10----9----|
|-10-------|--9----7----|------------|------------|
|----------|------------|------------|------------|
|
|  TP         TP   TP     TP            TP
|  H.         Q.   Q.     H.           +H.
|----------|------------|------------|------------|
|----------|------------|------------|------------|
|----------|------------|------------|------------|
|--9-------|-12----7----|------------|------------|
|----------|------------|-7----------|-(7)--------|
|----------|------------|------------|------------|


   TP         TP   TP      TP        TP     TP    TP
   H.         Q.   Q.      Q.        Q.     Q.    Q.
|----------|------------|-----------------|------------|
|----------|------------|-----------------|------------|
|----------|------------|-----------12----|------12----|
|----------|------------|-10--------------|-9----------|
|-10-------|--9----7----|-----------------|------------|
|----------|------------|-----------------|------------|
|
|  TP         TP   ~~                ~~~
|  H.         Q.   Q.      E   E  E  Q.     H.
|----------|------------|-----------------|------------|
|----------|------------|-----------------|------------|
|----------|------------|-----------------|------------|
|--9-------|-12----7----|-----------------|------------|
|----------|------------|-10--10-10-10----|-7----------|
|----------|------------|-----------------|------------|


   TP         TP   TP     TP   TP  TP   TP   TP
   H.         Q.   Q.     Q.   Q   E    Q.   Q.
|----------|------------|------------|------------|
|----------|------------|------------|------------|
|----------|------------|------------|------------|
|----------|------------|-9----7--12-|-10----9----|
|-10-------|--9----7----|------------|------------|
|----------|------------|------------|------------|
|
|  TP         TP   TP     TP            TP
|  H.         Q.   Q.     H.           +H.
|----------|------------|------------|------------|
|----------|------------|------------|------------|
|----------|------------|------------|------------|
|--9-------|-12----7----|------------|------------|
|----------|------------|-7----------|-(7)--------|
|----------|------------|------------|------------|


   TP         TP   TP      TP    TP     TP    TP
   H.         Q.   Q.      Q.    Q.     Q.    Q.
|----------|------------|-------------|------------|
|----------|------------|-------------|------------|
|----------|------------|-------12----|------12----|
|----------|------------|-10----------|-9----------|
|-10-------|--9----7----|-------------|------------|
|----------|------------|-------------|------------|
|
|  TP         TP   ~~
|  H.         Q.   Q.      H.           H.
|----------|------------|-------------|------------|
|----------|------------|-------------|------------|
|----------|------------|-------------|------------|
|--9-------|-12----7----|-------------|------------|
|----------|------------|-10----------|-7----------|
|----------|------------|-------------|------------|


   TP         TP   TP     TP   TP  TP   TP   TP
   H.         Q.   Q.     Q.   Q   E    Q.   Q.
|----------|------------|------------|--------------|
|----------|------------|------------|--------------|
|----------|------------|------------|--------------|
|----------|------------|-9----7--12-|-10----9------|
|-10-------|--9----7----|------------|--------------|
|----------|------------|------------|--------------|
|
|  TP         TP   TP     TP            TP   PM---|
|  H.         Q.   Q.     H.           +Q.   E  E E
|----------|------------|------------|--------------|
|----------|------------|------------|--------------|
|----------|------------|------------|--------------|
|--9-------|-12----7----|------------|--------------|
|----------|------------|-7----------|-(7)---7--7-7-|
|----------|------------|------------|--------------|


   TP         TP   TP      TP    TP     TP    TP
   H.         Q.   Q.      Q.    Q.     Q.    Q.
|----------|------------|-------------|------------|
|----------|------------|-------------|------------|
|----------|------------|-------12----|------12----|
|----------|------------|-10----------|-9----------|
|-10-------|--9----7----|-------------|------------|
|----------|------------|-------------|------------|
|
|  TP         TP   ~~
|  H.         Q.   Q.      H.           Q.    Q.
|----------|------------|-------------|------------|
|----------|------------|-------------|------------|
|----------|------------|-------------|------------|
|--9-------|-12----7----|-------------|------------|
|----------|------------|-10----------|-7----------|
|----------|------------|-------------|------12\---|


  Q.=110
  TP    PM|    TP           TP    PM|   TP         TP    PM|
  H     E E    H.           H     E E   H.         H     E E
|-----------|-------------|-----------|---------|------------|
|-----------|-------------|-----------|---------|------------|
|-----------|-------------|-----------|---------|------------|
|-----------|-------------|-----------|---------|------------|
|-2---------|--3----------|-2---------|-3-------|--2---------|
|-------0-0-|-------------|-------0-0-|---------|--------0-0-|
|
| TP           TP    TP     TP          TP         TP
| H.          +Q.    Q.     H.          H.        +H.
|-----------|-------------|-----------|---------|------------|
|-----------|-------------|-----------|---------|------------|
|-----------|-------------|-----------|---------|------------|
|-9---------|-(9)---10----|-9---------|-7-------|-(7)--------|
|-----------|-------------|-----------|---------|------------|
|-----------|-------------|-----------|---------|------------|


  TP           TP       PM|   TP               TP
  H.           H        E E   H.               H.
|-----------|---------------|----------------|-------------|
|-----------|---------------|----------------|-------------|
|-----------|---------------|----------------|-------------|
|-----------|---------------|----------------|-------------|
|-3---------|--2------------|-5--------------|-4-----------|
|-----------|-----------0-0-|----------------|-------------|
|
| TP   TP      TP    ~~~      TP               PM---|
| Q.   Q.      Q.    Q.       Q.   Q     +E    E  E E Q.
|-----------|---------------|----------------|-------------|
|-----------|---------------|----------------|-------------|
|-----------|---------------|----------------|-------------|
|-7----9----|-------12------|----------------|-------------|
|-----------|-10------------|-9----9b10r=(9)-|-9--9-9-9----|
|-----------|---------------|----------------|-------------|


  TP    PM|    TP           TP    PM|   TP         TP    PM|
  H     E E    H.           H     E E   H.         H     E E
|-----------|-------------|-----------|---------|------------|
|-----------|-------------|-----------|---------|------------|
|-----------|-------------|-----------|---------|------------|
|-----------|-------------|-----------|---------|------------|
|-2---------|--3----------|-2---------|-3-------|--2---------|
|-------0-0-|-------------|-------0-0-|---------|--------0-0-|
|
| TP           TP    TP     TP          TP         TP
| H.          +Q.    Q.     H.          H.        +H.
|-----------|-------------|-----------|---------|------------|
|-----------|-------------|-----------|---------|------------|
|-----------|-------------|-----------|---------|------------|
|-9---------|-(9)---10----|-9---------|-7-------|-(7)--------|
|-----------|-------------|-----------|---------|------------|
|-----------|-------------|-----------|---------|------------|


  TP           TP    TP     TP                TP
  H.           Q.    Q.     H.                H.
|-----------|-------------|----------------|--------------||
|-----------|-------------|----------------|--------------||
|-----------|-------------|----------------|--------------||
|-----------|-------------|----------------|--------------||
|-3---------|--2-----7----|-5--------------|--4-----------||
|-----------|-------------|----------------|--------------||
|
| TP   TP      TP    ~~~    TP
| Q.   Q.      Q.    Q.     Q.   Q     +E     Q.     Q.
|-----------|-------------|----------------|--------------||
|-----------|-------------|----------------|--------------||
|-----------|-------------|----------------|--------------||
|-7----9----|-------12----|----------------|--------------||
|-----------|-10----------|-9----9b10r=(9)-|-[9]----------||
|-----------|-------------|----------------|-------/12\---||


    Q.=115
      PM|          TP              PM|          TP   TP
    E E E E E  E   H.            E E E E E  E   Q.   Q.
||---------------|-------------|--------------|-----------|
||o--------------|-------------|--------------|-----------|
||---------------|-9-----------|--------------|-9----7----|
||---------------|-------------|--------------|-----------|
||o-7-----7-9-10-|-------------|-7-----7-9-10-|-----------|
||----0-0--------|-------------|---0-0--------|-----------|
|
|     PM|          TP              PM|          TP   TP
|   E E E E E  E   Q.   +Q.      E E E E E  E   Q.   Q.
||---------------|-------------|--------------|-----------|
||o--------------|-------------|--------------|-----------|
||---------------|-9----(9)\---|--------------|-9----7----|
||---------------|-------------|--------------|-----------|
||o-7-----7-9-10-|-------------|-7-----7-9-10-|-----------|
||----0-0--------|-------------|---0-0--------|-----------|


    PM|           TP    TP       PM|           TP  TP TP
  E E E E E  E    Q.    Q.     E E E E E  E    Q   E  Q.
|--------------|-------------|--------------|---------------||
|--------------|-------------|--------------|--------------o||
|--------------|-11----------|--------------|--------15-----||
|--------------|-------10----|--------------|-12--11--------||
|-7-----7-9-10-|-------------|-7-----7-9-10-|--------------o||
|---0-0--------|-------------|---0-0--------|---------------||
|
|   PM|           TP    TP       PM|           TP  TP
| E E E E E  E    Q.    Q.     E E E E E  E    Q   E  Q.
|--------------|-------------|--------------|---------------||
|--------------|-------------|--------------|--------------o||
|--------------|-11----------|--------------|--------15\----||
|--------------|-------10----|--------------|-12--11--------||
|-7-----7-9-10-|-------------|-7-----7-9-10-|--------------o||
|---0-0--------|-------------|---0-0--------|---------------||


     PM|           TP                  PM|           TP   TP
  E  E E E E  E    H.               E  E E E E  E    Q.   Q.
|---------------|-----------------|---------------|------------|
|---------------|-----------------|---------------|------------|
|---------------|--9--------------|---------------|--9----7----|
|---------------|-----------------|---------------|------------|
|-7------7-9-10-|-----------------|-7------7-9-10-|------------|
|----0-0--------|-----------------|----0-0--------|------------|
|
| TP               TP               TP               TP   ~~
| H.              +Q.   Q     +E    H.              +Q.   Q.
|---------------|-----------------|---------------|------------|
|---------------|-----------------|---------------|------------|
|---------------|-----------------|---------------|------------|
|-9-------------|-(9)---9b10r=(9)-|-8-------------|-(8)---8----|
|---------------|-----------------|---------------|------------|
|---------------|-----------------|---------------|------------|


      PM|            TP     TP        PM|           TP  TP TP
   E  E E E E  E     Q.     Q.      E E E E E  E    Q   E  Q.
|----------------|----------------|--------------|--------------|
|----------------|----------------|--------------|--------------|
|----------------|--11------------|--------------|--------15----|
|----------------|---------10-----|--------------|-12--11-------|
|--7------7-9-10-|----------------|-7-----7-9-10-|--------------|
|-----0-0--------|----------------|---0-0--------|--------------|
|
|  TP                TP               PM|   PM|     TP  TP
|  H.               +Q.    +Q.      E E E E E  E    Q   E  Q.
|----------------|----------------|--------------|--------------|
|----------------|----------------|--------------|--------------|
|----------------|----------------|--------------|--------15\---|
|----------------|----------------|--------------|-12--11-------|
|-10-------------|-(10)---(10)\---|-7-----7------|--------------|
|----------------|----------------|---0-0---0--0-|--------------|


     PM|           TP                  PM|           TP   TP
  E  E E E E  E    H.               E  E E E E  E    Q.   Q.
|---------------|-----------------|---------------|------------|
|---------------|-----------------|---------------|------------|
|---------------|--9--------------|---------------|--9----7----|
|---------------|-----------------|---------------|------------|
|-7------7-9-10-|-----------------|-7------7-9-10-|------------|
|----0-0--------|-----------------|----0-0--------|------------|
|
| TP               TP               TP               TP   ~~
| H.              +Q.   Q     +E    H.              +Q.   Q.
|---------------|-----------------|---------------|------------|
|---------------|-----------------|---------------|------------|
|---------------|-----------------|---------------|------------|
|-9-------------|-(9)---9b10r=(9)-|-8-------------|-(8)---8----|
|---------------|-----------------|---------------|------------|
|---------------|-----------------|---------------|------------|


      PM|            TP     TP       TP      TP        TP  TP
   E  E E E E  E     Q.     Q.       Q.      Q.        Q   E  Q.
|----------------|----------------|-----------------|--------------|
|----------------|----------------|-----------------|--------------|
|----------------|--11------------|-15--------------|-15-----15\---|
|----------------|---------10-----|---------12------|-----12-------|
|--7------7-9-10-|----------------|-----------------|--------------|
|-----0-0--------|----------------|-----------------|--------------|
|
|  TP                TP                 PM|     PM|    TP  TP
|  H.               +Q.    +Q.       E  E E  E  E E    Q   E  Q.
|----------------|----------------|-----------------|--------------|
|----------------|----------------|-----------------|--------------|
|----------------|----------------|-----------------|--------15\---|
|----------------|----------------|-----------------|-12--11-------|
|-10-------------|-(10)---(10)\---|--7-------7------|--------------|
|----------------|----------------|-----0-0-----0-0-|--------------|


   Begin fade out.

     PM|           TP                  PM|           TP   TP
  E  E E E E  E    H.               E  E E E E  E    Q.   Q.
|---------------|-----------------|---------------|------------|
|---------------|-----------------|---------------|------------|
|---------------|--9--------------|---------------|--9----7----|
|---------------|-----------------|---------------|------------|
|-7------7-9-10-|-----------------|-7------7-9-10-|------------|
|----0-0--------|-----------------|----0-0--------|------------|
|
| TP               TP               TP               TP   ~~
| H.              +Q.   Q     +E    H.              +Q.   Q.
|---------------|-----------------|---------------|------------|
|---------------|-----------------|---------------|------------|
|---------------|-----------------|---------------|------------|
|-9-------------|-(9)---9b10r=(9)-|-8-------------|-(8)---8----|
|---------------|-----------------|---------------|------------|
|---------------|-----------------|---------------|------------|


      PM|            TP     TP        PM|           TP  TP TP
   E  E E E E  E     Q.     Q.      E E E E E  E    Q   E  Q.
|----------------|----------------|--------------|--------------|
|----------------|----------------|--------------|--------------|
|----------------|--11------------|--------------|--------15----|
|----------------|---------10-----|--------------|-12--11-------|
|--7------7-9-10-|----------------|-7-----7-9-10-|--------------|
|-----0-0--------|----------------|---0-0--------|--------------|
|
|  TP                TP               PM|   PM|     TP  TP
|  H.               +Q.    +Q.      E E E E E  E    Q   E  Q.
|----------------|----------------|--------------|--------------|
|----------------|----------------|--------------|--------------|
|----------------|----------------|--------------|--------15\---|
|----------------|----------------|--------------|-12--11-------|
|-10-------------|-(10)---(10)\---|-7-----7------|--------------|
|----------------|----------------|---0-0---0--0-|--------------|


     PM|           TP           PM|           TP   TP
  E  E E E E  E    H.        E  E E E E  E    Q.   Q.
|---------------|----------|---------------|------------|
|---------------|----------|---------------|------------|
|---------------|--9-------|---------------|--9----7----|
|---------------|----------|---------------|------------|
|-7------7-9-10-|----------|-7------7-9-10-|------------|
|----0-0--------|----------|----0-0--------|------------|
|
| TP               TP        TP               TP   ~~
| H.              +H.        H.              +Q.   Q.
|---------------|----------|---------------|------------|
|---------------|----------|---------------|------------|
|---------------|----------|---------------|------------|
|-9-------------|-(9)------|-8-------------|-(8)---8----|
|---------------|----------|---------------|------------|
|---------------|----------|---------------|------------|


      PM|            TP     TP        PM|           TP  TP TP
   E  E E E E  E     Q.     Q.      E E E E E  E    Q   E  Q.
|----------------|----------------|--------------|--------------|
|----------------|----------------|--------------|--------------|
|----------------|--11------------|--------------|--------15----|
|----------------|---------10-----|--------------|-12--11-------|
|--7------7-9-10-|----------------|-7-----7-9-10-|--------------|
|-----0-0--------|----------------|---0-0--------|--------------|
|
|  TP                TP               PM|   PM|     TP  TP
|  H.               +Q.    +Q.      E E E E E  E    Q   E  Q.
|----------------|----------------|--------------|--------------|
|----------------|----------------|--------------|--------------|
|----------------|----------------|--------------|--------15\---|
|----------------|----------------|--------------|-12--11-------|
|-10-------------|-(10)---(10)\---|-7-----7------|--------------|
|----------------|----------------|---0-0---0--0-|--------------|


    PM|          TP              PM|          TP   TP
  E E E E E  E   H.            E E E E E  E   Q.   Q.
|--------------|-------------|--------------|-----------|
|--------------|-------------|--------------|-----------|
|--------------|-9-----------|--------------|-9----7----|
|--------------|-------------|--------------|-----------|
|-7-----7-9-10-|-------------|-7-----7-9-10-|-----------|
|---0-0--------|-------------|---0-0--------|-----------|
|
|   PM|          TP              PM|          TP   TP
| E E E E E  E   Q.   +Q.      E E E E E  E   Q.   Q.
|--------------|-------------|--------------|-----------|
|--------------|-------------|--------------|-----------|
|--------------|-9----(9)\---|--------------|-9----7----|
|--------------|-------------|--------------|-----------|
|-7-----7-9-10-|-------------|-7-----7-9-10-|-----------|
|---0-0--------|-------------|---0-0--------|-----------|


    PM|           TP    TP      TP      TP          TP
  E E E E E  E    Q.    Q.      Q.      Q.         +H.
|--------------|-------------|------------------|----------------|
|--------------|-------------|------------------|----------------|
|--------------|-11----------|-15------15-------|-(15)-----------|
|--------------|-------10----|---------12-------|-(12)-----------|
|-7-----7-9-10-|-------------|------------------|----------------|
|---0-0--------|-------------|------------------|----------------|
|
|   PM|           TP    TP         PM|              TP   TP
| E E E E E  E    Q.    Q.      E  E E  E  E  E     Q    E  Q.
|--------------|-------------|------------------|----------------|
|--------------|-------------|------------------|----------------|
|--------------|-11----------|------------------|----------15\---|
|--------------|-------10----|------------------|--11---12-------|
|-7-----7-9-10-|-------------|--7-------7--9-10-|----------------|
|---0-0--------|-------------|-----0-0----------|----------------|


    PM|          TP              PM|          TP   TP
  E E E E E  E   H.            E E E E E  E   Q.   Q.
|--------------|-------------|--------------|-----------|
|--------------|-------------|--------------|-----------|
|--------------|-9-----------|--------------|-9----7----|
|--------------|-------------|--------------|-----------|
|-7-----7-9-10-|-------------|-7-----7-9-10-|-----------|
|---0-0--------|-------------|---0-0--------|-----------|
|
|   PM|          TP              PM|          TP   TP
| E E E E E  E   Q.   +Q.      E E E E E  E   Q.   Q.
|--------------|-------------|--------------|-----------|
|--------------|-------------|--------------|-----------|
|--------------|-9----(9)\---|--------------|-9----7----|
|--------------|-------------|--------------|-----------|
|-7-----7-9-10-|-------------|-7-----7-9-10-|-----------|
|---0-0--------|-------------|---0-0--------|-----------|


    PM|           TP    TP       PM|           TP  TP TP
  E E E E E  E    Q.    Q.     E E E E E  E    Q   E  Q.
|--------------|-------------|--------------|--------------*|
|--------------|-------------|--------------|--------------*|
|--------------|-11----------|--------------|--------15----*|
|--------------|-------10----|--------------|-12--11-------*|
|-7-----7-9-10-|-------------|-7-----7-9-10-|--------------*|
|---0-0--------|-------------|---0-0--------|--------------*|
|
|   PM|           TP    TP       PM|           TP  TP
| E E E E E  E    Q.    Q.     E E E E E  E    Q   E  Q.
|--------------|-------------|--------------|--------------*|
|--------------|-------------|--------------|--------------*|
|--------------|-11----------|--------------|--------15\---*|
|--------------|-------10----|--------------|-12--11-------*|
|-7-----7-9-10-|-------------|-7-----7-9-10-|--------------*|
|---0-0--------|-------------|---0-0--------|--------------*|


Duration Legend
---------------
W - whole; H - half; Q - quarter; E - 8th; S - 16th; T - 32nd; X - 64th; a - acciaccatura
+ - note tied to previous; . - note dotted; .. - note double dotted
Uncapitalized letters represent notes that are staccato (1/2 duration)
Irregular groupings are notated above the duration line
Duration letters will always appear directly above the note/fret number it represents the
duration for.  Duration letters with no fret number below them represent rests.  Multi-
bar rests are notated in the form Wxn, where n is the number of bars to rest for.  Low
melody durations appear below the staff

Tablature Legend
----------------
 h   - hammer-on
 p   - pull-off
 b   - bend
 pb  - pre-bend
 r   - bend release (if no number after the r, then release immediately)
 /\  - slide into or out of (from/to "nowhere")
 s   - legato slide
 S   - shift slide
  - natural harmonic
[n]  - artificial harmonic
n(n) - tapped harmonic
 ~   - vibrato
 tr  - trill
 T   - tap
 TP  - trem. picking
 PM  - palm muting
\n/  - tremolo bar dip; n = amount to dip
 \n  - tremolo bar down
 n/  - tremolo bar up
/n\  - tremolo bar inverted dip
 =   - hold bend; also acts as connecting device for hammers/pulls
 <>  - volume swell (louder/softer)
 x   - on rhythm slash represents muted slash
 o   - on rhythm slash represents single note slash

Misc Legend
-----------
 |  - bar
||  - double bar
||o - repeat start
o|| - repeat end
*|  - double bar (ending)
 :  - bar (freetime)
 $  - Segno
 &  - Coda
Tempo markers -  = BPM(8/16=s8/s16), where s8 = swing 8ths, s16 = swing 16ths


***************************************************************************************
***************************************************************************************
            
Submit corrections

↑ Back to top | Tablatures and chords for acoustic guitar and electric guitar, ukulele, drums are parodies/interpretations of the original songs. You may use it for private study, scholarship, research or language learning purposes only