Home » A » Attack In Black »

Attack In Black - Young Leaves Tabs

Artists:  A B C D E F G H I J K L M N O P Q R S T U V W X Y Z # 

Young Leaves Tabs

(ver. 2) Click to play this song!
Attack In Black
-------------------------------------------------------------------------------
-------------------------------------------------------------------------------

Tuning: Standard

e|--------------------------------------------------------------------|
B|------7---------7-----------7--7---7---7/9-7----12-11-9-7-----------|
G|----9--8-8---8----8---8/9-----8--8---8------8-6---------------10--8-|
D|--9--------9---9----9-----9---------------------------------9-------|
A|----------------------------------------------------------9---------|
E|--------------------------------------------------------------------|

e|--------------------------------------------------------------------|
B|--------------------------------------------------------------------|
G|---------------9-10-8-----------------------------------------------|
D|-10-9-9-10-9--------------------------------------------------------|
A|--------------------------------------------------------------------|
E|--------------------------------------------------------------------|

e|--------------------------------------------------------------------|
B|--------7-----------7--7---7---7/9-7----12 11 9 7-------------------|
G|-8---8----8---8/9-----8--8---8------8-6---------------10--8---------|
D|---9---9----9-----9---------------------------------9---------------|
A|--------------------------------------------------9-----------------|
E|--------------------------------------------------------------------|

e|--------------------------------------------------------------------|
B|--------------------------------------------------------------------|
G|---------------9-10-8-----------------------------------------------|
D|-10-9-9-10-9--------------------------------------------------------|
A|--------------------------------------------------------------------|
E|--------------------------------------------------------------------|



e|--7------5------2------3--3--3--3-----------------------------------|
B|--9------7------4------5--5--5--5-----------------------------------|
G|--9------7------4------5--5--5--5-----------------------------------|
D|--7------5------2------3--3--3--3-----------------------------------|
A|--7------5------2------3--3--3--3-----------------------------------|
E|--7------5------2------3--3--3--3-----------------------------------|
            
Submit corrections

↑ Back to top | Tablatures and chords for acoustic guitar and electric guitar, ukulele, drums are parodies/interpretations of the original songs. You may use it for private study, scholarship, research or language learning purposes only