» » »

Attack Attack - Shred White And Blue Bass

Artists:  A B C D E F G H I J K L M N O P Q R S T U V W X Y Z # 

Shred White And Blue Bass

(ver. 1) Click to play this song!
Attack Attack
 Rating:
4/5 (4 votes)
                             ATTACK ATTACK      -     SHRED, WHITE, AND BLUE

|---------------|
|---------------|
|---------------|   x4
|--00----00-----|

|---------------|
|---------------|
|---------------|   x4
|--00-8~-88-0~--|

|--------------------------------|
|--------------------------------|
|--------------------------------| x2
|--000-000------000-000-000-000--|

|---------------------------------------9~9~----7~7~7~-|    |------|
|------------------------------------00------00--------|    |------|
|------------------------------------------------------| x2 |------|
|--8888888888888888-8888888888888888-------------------|    |--0~--|

|-------------------------------------------------------|
|-------------------------------------------------------|
|-------------------------------------------------------|  x2
|--0000000000000000-8888888888888888-00----00000000-00--|

|-------------------------------------------------------------------|
|-------------------------------------------------------------------|
|-------------------------------------------------------------------|
|--0-------00000000-88------88888888-1010------1010101010101010-5~--|

pause.

|----------------------|
|----------------------|
|----------------------|
|--111-11-1-1-1-11111--|
            
Submit corrections

↑ Back to top | Tablatures and chords for acoustic guitar and electric guitar, ukulele, drums are parodies/interpretations of the original songs. You may use it for private study, scholarship, research or language learning purposes only