» » »

Atmosphere - You Tabs

Artists:  A B C D E F G H I J K L M N O P Q R S T U V W X Y Z # 

You Tabs

(ver. 1) Click to play this song!
Atmosphere
 Rating:
4/5 (5 votes)

 You lessons Tabs too difficult? Try these video lessons and learn fast
 
                -------------------------------------------------------------------------------
                             Atmosphere - You
-------------------------------------------------------------------------------

Tuning: Standard


Intro

e|---------------------------------------------------------------------------|
B|---------------------------------------------------------------------------|
G|-5xx5xx5xx4-5--------------------------------------------------------------|
D|-5xx5xx5xx4-5--------------------------------------------------------------|
A|-3xx3xx3xx2-3--------------------------------------------------------------|
E|---------------------------------------------------------------------------|

Verse played througout entire song...

e|----------------------------P---------------------------------------------------------|
B|----------------------------A---------------------------------------------------------|
G|----------------------------U---------------------------------------------------------|
D|-2-2-2-xx--3-3-3-xx--3-3-3--S--3-2-1--------------------------------------------------|
A|-2-2-2-xx--3-3-3-xx--5-5-5--E--5-4-3--------------------------------------------------|
E|-0-0-0-xx--1-1-1-xx--5-5-5-----5-4-3--------------------------------------------------|


===============================================================================
            
Submit corrections


        You lessons Hard to play? Try these video lessons and learn fast You lessons
        
↑ Back to top | Tablatures and chords for acoustic guitar and electric guitar, ukulele, drums are parodies/interpretations of the original songs. You may use it for private study, scholarship, research or language learning purposes only