Home » A » Atb »

Atb - 9 Pm Tabs

Artists:  A B C D E F G H I J K L M N O P Q R S T U V W X Y Z # 

9 Pm Tabs

(ver. 2) Click to play this song!
Atb
THIS IS LIKE THEIR FAMOUS SONG.  IM NOT SURE IF 9PM IS THE SONGS NAME.  I DID NOT TAB THIS 100% CORRECTLY, BUT ITS PRETTY GOOOD.  ITS NOT ALL OF IT, IM WORKING ON THE REST.  


E-------5-5-7-5-8---------------------------
B-------------------------------------------
G-------------------------------------------
D-------------------------------------------
A-------------------------------------------
E-------------------------------------------

E-------5-5-7-5-8---------------------------
B-------------------------------------------
G-------------------------------------------
D-------------------------------------------
A-------------------------------------------
E-------------------------------------------

E------3-3-5-3-7----------------------------
B-------------------------------------------
G-------------------------------------------
D-------------------------------------------
A-------------------------------------------
E-------------------------------------------

E-------5-5-7-5-8---------------------------
B-------------------------------------------
G-------------------------------------------
D-------------------------------------------
A-------------------------------------------
E-------------------------------------------


E-------5-5-7-5-8-8-8--10-8-----------------
B-------------------------------------------
G-------------------------------------------
D-------------------------------------------
A-------------------------------------------
E-------------------------------------------
++++++++++++++++++++++++++++++++++++++++++++++++

E----3-3-5-3-6-6-6----10--7-----------------
B-------------------------------------------
G-------------------------------------------
D-------------------------------------------
A-------------------------------------------
E-------------------------------------------

E-------5-5-7-5-8-8-8--10-8-----------------
B-------------------------------------------
G-------------------------------------------
D-------------------------------------------
A-------------------------------------------
E-------------------------------------------
THEN CONTINUE FROM THE +'s
            
Submit corrections

↑ Back to top | Tablatures and chords for acoustic guitar and electric guitar, ukulele, drums are parodies/interpretations of the original songs. You may use it for private study, scholarship, research or language learning purposes only