Home » A » Atb »

Atb - Don Stop Tabs

Artists:  A B C D E F G H I J K L M N O P Q R S T U V W X Y Z # 

Don Stop Tabs

(ver. 1) Click to play this song!
Atb



Track: Don't Stop
Please if you like the tab rate it!

Intro x2

e|-------------------------------------------------------------------------------|
B|---11-11-11---11-11-11---10-10-10---10-10-10---8-8-8---8-8-8---4-4-4---4-4-4---|
G|-------------------------------------------------------------------------------|
D|-------------------------------------------------------------------------------|
A|-------------------------------------------------------------------------------|
E|-------------------------------------------------------------------------------|

This plays VERY softly in the back ground during the Intro
 
e|-------------------------------------------------------------------------------|
B|--------------11---13^---------------------------------13---11-----------------|
G|-------------------------------------------------------------------------------|
D|-------------------------------------------------------------------------------|
A|-------------------------------------------------------------------------------|
E|-------------------------------------------------------------------------------|


Part A x2 

e|-------------------------------------------------------------------------------|
B|---11-11-11---13-15------10-10-10---11-13^-------------------------------------|
G|-------------------------------------------------------------------------------|
D|-------------------------------------------------------------------------------|
A|-------------------------------------------------------------------------------|
E|-------------------------------------------------------------------------------|




|--------------------------------------Break-------------------------------------| 




Part A x2 

e|-------------------------------------------------------------------------------|
B|---11-11-11---13-15------10-10-10---11-13^-------------------------------------|
G|-------------------------------------------------------------------------------|
D|-------------------------------------------------------------------------------|
A|-------------------------------------------------------------------------------|
E|-------------------------------------------------------------------------------|

Part A Addition x1

e|---11-11-11---11h13-10---------------------------------------------------------|
B|-------------------------------------------------------------------------------|
G|-------------------------------------------------------------------------------|
D|-------------------------------------------------------------------------------|
A|-------------------------------------------------------------------------------|
E|-------------------------------------------------------------------------------|

Part B x6
 
e|--------------------13-13-13h15-13-------------------11-11-11h13-10------------|
B|---11-11-11---13-15----------------10-10-10---11-13^---------------------------|
G|-------------------------------------------------------------------------------|
D|-------------------------------------------------------------------------------|
A|-------------------------------------------------------------------------------|
E|-------------------------------------------------------------------------------|

Intro x2

e|-------------------------------------------------------------------------------|
B|---11-11-11---11-11-11---10-10-10---10-10-10---8-8-8---8-8-8---4-4-4---4-4-4---|
G|-------------------------------------------------------------------------------|
D|-------------------------------------------------------------------------------|
A|-------------------------------------------------------------------------------|
E|-------------------------------------------------------------------------------|




|--------------------------------------Break-------------------------------------| 




Part A Addition x1

e|---11-11-11---11h13-10---------------------------------------------------------|
B|-------------------------------------------------------------------------------|
G|-------------------------------------------------------------------------------|
D|-------------------------------------------------------------------------------|
A|-------------------------------------------------------------------------------|
E|-------------------------------------------------------------------------------|

Part B x4
 
e|--------------------13-13-13h15-13-------------------11-11-11h13-10------------|
B|---11-11-11---13-15----------------10-10-10---11-13^---------------------------|
G|-------------------------------------------------------------------------------|
D|-------------------------------------------------------------------------------|
A|-------------------------------------------------------------------------------|
E|-------------------------------------------------------------------------------|

Outro x1 

e|--------------------------------------------11-11-11h13-10---------------------|
B|---11-11-11---13-15------10-10-10---11-13^-------------------------------------|
G|-------------------------------------------------------------------------------|
D|-------------------------------------------------------------------------------|
A|-------------------------------------------------------------------------------|
E|-------------------------------------------------------------------------------|

e|-------------------------------------------------------------------------------|
B|---11-11-11---13-15------10-10-10---11-13^-------------------------------------|
G|-------------------------------------------------------------------------------|
D|-------------------------------------------------------------------------------|
A|-------------------------------------------------------------------------------|
E|-------------------------------------------------------------------------------|
            
Submit corrections

↑ Back to top | Tablatures and chords for acoustic guitar and electric guitar, ukulele, drums are parodies/interpretations of the original songs. You may use it for private study, scholarship, research or language learning purposes only