Home » A » Ataris »

Ataris - Saddest Song Tabs

Artists:  A B C D E F G H I J K L M N O P Q R S T U V W X Y Z # 

Saddest Song Tabs

(ver. 2) Click to play this song!
Ataris
(Acoustic)
The Ataris
The Saddest Song Acoustic

Drop D

Intro: 
e|-------------------------------|
B|-------------------------------|
G|-------------------------------|
D|---8-------5-------3-------1---|
A|---8-------5-------3-------1---|
D|---8-------5-------3-------1---|

Verses: Short slightly palm muted stokes that 
get a little louder toward the end of each verse 
e|-------------------------------|
B|-------------------------------|
G|-------------------------------|
D|---8-------5-------3-------1---|
A|---8-------5-------3-------1---|
D|---8-------5-------3-------1---|

Prechorus:
e|-------------------------------|
B|-------------------------------|
G|-------------------------------|
D|---5---3---8---1---5---3---1---|
A|---5---3---8---1---5---3---1---|
D|---5---3---8---1---5---3---1---|

Chorus and outro:
e|-------------------------------|
B|-------------------------------|
G|-------------------------------|
D|---8-------5-------3-------1---|
A|---8-------5-------3-------1---|
D|---8-------5-------3-------1---|

End on this chord:
|-------|
|-------|
|-------|
|---8---|
|---8---|
|---8---|
            
Submit corrections

↑ Back to top | Tablatures and chords for acoustic guitar and electric guitar, ukulele, drums are parodies/interpretations of the original songs. You may use it for private study, scholarship, research or language learning purposes only