Home » A » Asteria »

Asteria - A Lesson In Charades Tabs

Artists:  A B C D E F G H I J K L M N O P Q R S T U V W X Y Z # 

A Lesson In Charades Tabs

(ver. 3) Click to play this song!
Asteria
                        .:'Intro':. / Verse 1


[ Guitar 1 ]                         [ Guitar 2 ]
Played throughout
e|----------2------|--2--0--|        e|----------------------------|
b|---3---------3---|--------|        b|----------------------------|
g|-----------------|--------|        g|----------------------------|
d|-0---00--(0)-----|--0--0--|        d|-0-0---0-0------------------|
a|-----------------|--------|        a|-2-2---2-2---0h2--2-2--2-2--|
e|-----------------|--------|        e|------------------3-3--3-3--|
                      ^^^^
            Substitute every
           4th time at the end


                    [ Guitar 3 ]  ( During Verse 1 )

                           e|------------|
                           b|------------|
                           g|--44--------|
                           d|--44----55--|
                           a|--22----55--|
                           e|--------33--|
                               xx    xx
____________________________________________________________________________

Just before the chorus
Guitar 1 goes

e|----------2------2-------2------|
b|---3--------3------3-------3----|
g|--------------------------------|
d|-0---00-------0------0-------0--|
a|--------------------------------|
e|--------------------------------|

                             .:'Chorus':.
                 I can tell theres a 2nd guitar in here
             but it was hard to pick it out and this sounds
                    pretty close to a blend of the 2

[ Guitar 1 ]

one moment at a time...           stop and let me breathe...
e----------------------------|            e|------|
b|---------------------------|            b|------|
g|------6-----9--------------|            g|------|
d|-5----6-x5--9-x16--10------| x2 end on  d|--9~--|
a|-5-x5-4-----7------10-x16--|            a|--9~--|
e|-3-----------------8-------|            e|--7~--|


____________________________________________________________________________

                            .:'Repeat All':.

Then....

                          .:'Breakdown Thing':.

[ Guitar 1 ]

dont cry this poison's spreading...
e|----------------------------|
b|----------------------------|
g|------------4444444--4---4--|
d|--7777777---4444444--4---4--|
a|--7777777---2222222--2-2-2--|
e|--5555555-------------------|
    xxxxxxx   xxxxxxx   x


[ Guitar 2 ]
During the 5th time repeating
     guitar 2 plays this

listen to me, to me, to meeeee...
e|----------------------------------|
b|----------------------------------|
g|-3333-4444-5555-6666-----7-77-7-7-|
d|-xxxx-xxxx-xxxx-xxxx-----x-xx-x-x-|
a|-1111-2222-3333-4444-----5-55-5-5-|
e|----------------------------------|

Now..
                           .:'Final Chorus':.

[ Guitar 1 ]
e|---------------|
b|---------------|
g|-----6---------|
d|--5--6--9--10--|
a|--5--4--9--10--|
e|--3-----7--8---|
 ( you know the number of times )
 ( and the strumming pattern now )


Then...
[ Guitar 1 ]

e|----------2------|--2--0--|
b|---3---------3---|--------|
g|-----------------|--------|
d|-0---00--(0)-----|--0--0--|
a|-----------------|--------|
e|-----------------|--------|


e|----------2------2-------2-----2~---|
b|---3--------3------3-------3---3~---|
g|-------------------------------4~---|
d|-0---00-------0------0--(0)----0~---|
a|------------------------------------|
e|------------------------------------|
            
Submit corrections

↑ Back to top | Tablatures and chords for acoustic guitar and electric guitar, ukulele, drums are parodies/interpretations of the original songs. You may use it for private study, scholarship, research or language learning purposes only