Home » A » As It Is »

As It Is - You The Room The Devil On Your Shoulder Tabs

Artists:  A B C D E F G H I J K L M N O P Q R S T U V W X Y Z # 

You The Room The Devil On Your Shoulder Tabs

(ver. 1) Click to play this song!
As It Is
No Capo
Tuned to Drop D

[Guitar 1]
e|---------------------------|
B|---------------------------|
G|------------------2--------|
D|------7-----7---0-------0--|
A|----5-----5---2-----0-4----|
E|--4-----5------------------|

Repeat that threw out most of the song.

[Guitar 2]
e|------------|  |----|  |----------------|
B|----7h8-10--|  |--3-|  |----------------|
G|--7---------|  |----|  |----------------|
D|------------|  |----|  |--12/16-11-11~--|
A|------------|  |----|  |----------------|
E|------------|  |----|  |----------------|
     Pt1       Pt2         Pt3

Sometimes guitar add part 1 with part 2 and sometimes with part 3.
You'll have to relate to the actual song for that.

[Middle 8]
[Guitar 1]
e|---------------------------------------------------------------------|
B|---------------------------------------------------------------------|
G|------2-------2-------2-------2-------2-------2-------2-------2------|
D|----0---0---0---0---0---0---0---0---0---0---0---0---0---0---0---0----|  x2
A|--4-------4-------2-------2-------0-------0-------0-------2----------|
E|---------------------------------------------------------------------|

[Guitar 1]
e|---------------------------|
B|---------------------------|
G|------------------2--------|
D|------7-----7---0-------0--|
A|----5-----5---2-----0-4----|
E|--4-----5------------------|            
Submit corrections

↑ Back to top | Tablatures and chords for acoustic guitar and electric guitar, ukulele, drums are parodies/interpretations of the original songs. You may use it for private study, scholarship, research or language learning purposes only