Home » A » As It Is »

As It Is - Speak Soft Tabs

Artists:  A B C D E F G H I J K L M N O P Q R S T U V W X Y Z # 

Speak Soft Tabs

(ver. 1) Click to play this song!
As It Is
Opening] Guitar 2 Only:
"Why Should I Stick Around?"
e|-----|
B|-----|
G|-----|
D|--0--|
A|--0--|
D|--0--|

[Intro] Guitar 1:
e|---------------------------------------|--------------------------------------------|
B|---------------------------------------|--------------------------------------------|
G|--16--16--14--11/12\11---7--7--7--7/9--|--16--16--14--11/12\11---19--19--19--19\18--|
D|---x---x---x---x--x-x----x--x--x--x-x--|---x---x---x---x--x-x-----x---x---x---x--x--|
A|--14--14--12---9/10\9----5--5--5--5/7--|--14--14--12---9/10\9----17--17--17--17\16--|
D|---------------------------------------|--------------------------------------------|(x2)

[Intro] Guitar 2:
e|--------------------------------------|-----------------------------------------|
B|--------------------------------------|-----------------------------------------|
G|--------------------------------------|-----------------------------------------|
D|--5--5--5---5--5--5---5--5--5---7--7--|--9--9--9---9--9--9---9--9--9---4--4--4--|
A|--5--5--5---5--5--5---5--5--5---7--7--|--9--9--9---9--9--9---9--9--9---4--4--4--|
D|--5--5--5---5--5--5---5--5--5---7--7--|--9--9--9---9--9--9---9--9--9---4--4--4--|

e|--------------------------------------|-----------------------------------------|
B|--------------------------------------|-----------------------------------------|
G|--------------------------------------|-----------------------------------------|
D|--5--5--5---5--5--5---5--5--5---7--7--|--9--9--9---9--9--9---7--7--7---7--7--7--|
A|--5--5--5---5--5--5---5--5--5---7--7--|--9--9--9---9--9--9---7--7--7---7--7--7--|
D|--5--5--5---5--5--5---5--5--5---7--7--|--9--9--9---9--9--9---7--7--7---7--7--7--|

[Verse] Guitar 1:
"When I Ask You A Question..."
e|-------------5-----|------------------|-------------5-----|-------------------|
B|----------5-----7--|--------5h7p5-----|----------5-----7--|--5-----5----------|
G|-----6h7-----------|-----7---------7--|-----6h7-----------|-----7-----7--6h7--|
D|--7----------------|--7---------------|--7----------------|--------------7----|
A|-------------------|------------------|-------------------|-------------------|
D|-------------------|------------------|-------------------|-------------------|

[Verse] Guitar 2:
"When I Ask You A Question..."
e|--------------------------------------------------|
B|--------------------------------------------------|
G|--7--7--7--7--7--7--7--7--7--7--7--7--7--7--7--7--|
D|--x--x--x--x--x--x--x--x--x--x--x--x--x--x--x--x--|
A|--5--5--5--5--5--5--5--5--5--5--5--5--5--5--5--5--|
D|--------------------------------------------------|(x4)

[PreChorus] Guitar 1:
"Speak Soft, Speak Soft..."
e|--5----5-----5-----5-----|--5-----5-----0-----0--|--2----2-----2-----2-----|--2----2----0-----0--|
B|----3-----3-----3-----3--|-----3-----3-----3-----|----3-----3-----3-----3--|----3-----3----3-----|
G|-------------------------|-----------------------|-------------------------|---------------------|
D|-------------------------|-----------------------|-------------------------|---------------------|
A|-------------------------|-----------------------|-------------------------|---------------------|
D|-------------------------|-----------------------|-------------------------|---------------------|

e|--5----5-----5-----5-----|--5-----5-----0-----0--|--2----2-----2-----2-----|--2----2-------------|
B|----3-----3-----3-----3--|-----3-----3-----3-----|----3-----3-----3-----3--|----3-----3--2/3--3--|
G|-------------------------|-----------------------|-------------------------|---------------------|
D|-------------------------|-----------------------|-------------------------|---------------------|
A|-------------------------|-----------------------|-------------------------|---------------------|
D|-------------------------|-----------------------|-------------------------|---------------------|

[PreChorus] Guitar 2:
"Speak Soft, Speak Soft..."
e|--------------------------|--------------------|--------------------------|--------------------|
B|--------------------------|--------------------|--------------------------|--------------------|
G|--------------------------|--------------------|--------------------------|--------------------|
D|--5--5--5--5--5--5--5--5--|--5--5--5--5--7--7--|--9--9--9--9--9--9--9--9--|--9--9--9--9--4--4--|
A|--5--5--5--5--5--5--5--5--|--5--5--5--5--7--7--|--9--9--9--9--9--9--9--9--|--9--9--9--9--4--4--|
D|--5--5--5--5--5--5--5--5--|--5--5--5--5--7--7--|--9--9--9--9--9--9--9--9--|--9--9--9--9--4--4--|

e|--------------------------|--------------------|--------------------------|--------------------------|
B|--------------------------|--------------------|--------------------------|--------------------------|
G|--------------------------|--------------------|--------------------------|--------------------------|
D|--5--5--5--5--5--5--5--5--|--5--5--5--5--7--7--|--9--9--9--9--9--9--9--9--|--7--7--7--7--7--7--7--7--|
A|--5--5--5--5--5--5--5--5--|--5--5--5--5--7--7--|--9--9--9--9--9--9--9--9--|--7--7--7--7--7--7--7--7--|
D|--5--5--5--5--5--5--5--5--|--5--5--5--5--7--7--|--9--9--9--9--9--9--9--9--|--7--7--7--7--7--7--7--7--|

[Fill] Guitar 1:
"That Every Promise..."
e|-------5-------|-----5--|
B|--3-------2/3--|--3-----|
G|---------------|--------|
D|---------------|--------|
A|---------------|--------|
D|---------------|--------|

[Fill] Guitar 2:
"That Every Promise..."
e|-------|
B|-------|
G|-------|
D|--0----|
A|--0----|
D|--0----|

[Chorus] Guitar 1:
"Why Should I Stick Around?"
e|-----5--------|-----5--------|-----5--------|-----5--------|
B|--3------2/3--|--3------2/3--|--3------2/3--|--3------2/3--|
G|--------------|--------------|--------------|--------------|
D|--------------|--------------|--------------|--------------|
A|--------------|--------------|--------------|--------------|
D|--------------|--------------|--------------|--------------|(x2)

[Chorus] Guitar 2:
"Why Should I Stick Around?"
e|----------------------|----------------------|---------------------|---------------------|
B|----------------------|----------------------|---------------------|---------------------|
G|----------------------|----------------------|---------------------|---------------------|
D|--5---5--5--5--5--5---|--5---5--5--5--5--5---|--9---9--9--9--9--9--|--7---7--7--7--7--7--|
A|--5---5--5--5--5--5---|--5---5--5--5--5--5---|--9---9--9--9--9--9--|--7---7--7--7--7--7--|
D|--5---5--5--5--5--5---|--5---5--5--5--5--5---|--9---9--9--9--9--9--|--7---7--7--7--7--7--|(x2)

[PostChorus] Guitar 1:
e|-------------5-----|------------------|
B|----------5-----7--|--------5h7p5-----|
G|-----6h7-----------|-----7---------7--|
D|--7----------------|--7---------------|
A|-------------------|------------------|
D|-------------------|------------------|

[PostChorus] Guitar 2:
e|-------|
B|-------|
G|--7----|
D|--7----|
A|--5----|
D|-------|

[Verse] Guitar 1:
"Can I Give You An Answer..."
e|-------------5-----|------------------|-------------5-----|-------------------|
B|----------5-----7--|--------5h7p5-----|----------5-----7--|--5-----5----------|
G|-----6h7-----------|-----7---------7--|-----6h7-----------|-----7-----7--6h7--|
D|--7----------------|--7---------------|--7----------------|--------------7----|
A|-------------------|------------------|-------------------|-------------------|
D|-------------------|------------------|-------------------|-------------------|

[Verse] Guitar 2:
"Can I Give You An Answer..."
e|--------------------------------------------------|
B|--------------------------------------------------|
G|--7--7--7--7--7--7--7--7--7--7--7--7--7--7--7--7--|
D|--x--x--x--x--x--x--x--x--x--x--x--x--x--x--x--x--|
A|--5--5--5--5--5--5--5--5--5--5--5--5--5--5--5--5--|
D|--------------------------------------------------|(x4)

[PreChorus] Guitar 1:
"Speak Soft, Speak Soft..."
e|--5----5-----5-----5-----|--5----5-----0-----0--|--2----2-----2-----2-----|--2----2----0-----0--|
B|----3-----3-----3-----3--|-----3----3-----3-----|----3-----3-----3-----3--|----3-----3----3-----|
G|-------------------------|----------------------|-------------------------|---------------------|
D|-------------------------|----------------------|-------------------------|---------------------|
A|-------------------------|----------------------|-------------------------|---------------------|
D|-------------------------|----------------------|-------------------------|---------------------|

e|--5----5-----5-----5-----|--5----5-----0-----0--|--2----2-----2-----2-----|--2----2-------------|
B|----3-----3-----3-----3--|-----3----3-----3-----|----3-----3-----3-----3--|----3-----3--2/3--3--|
G|-------------------------|----------------------|-------------------------|---------------------|
D|-------------------------|----------------------|-------------------------|---------------------|
A|-------------------------|----------------------|-------------------------|---------------------|
D|-------------------------|----------------------|-------------------------|---------------------|

[PreChorus] Guitar 2:
"Speak Soft, Speak Soft..."
e|--------------------------|--------------------|--------------------------|--------------------|
B|--------------------------|--------------------|--------------------------|--------------------|
G|--------------------------|--------------------|--------------------------|--------------------|
D|--5--5--5--5--5--5--5--5--|--5--5--5--5--7--7--|--9--9--9--9--9--9--9--9--|--9--9--9--9--4--4--|
A|--5--5--5--5--5--5--5--5--|--5--5--5--5--7--7--|--9--9--9--9--9--9--9--9--|--9--9--9--9--4--4--|
D|--5--5--5--5--5--5--5--5--|--5--5--5--5--7--7--|--9--9--9--9--9--9--9--9--|--9--9--9--9--4--4--|

e|--------------------------|--------------------|--------------------------|--------------------------|
B|--------------------------|--------------------|--------------------------|--------------------------|
G|--------------------------|--------------------|--------------------------|--------------------------|
D|--5--5--5--5--5--5--5--5--|--5--5--5--5--7--7--|--9--9--9--9--9--9--9--9--|--7--7--7--7--7--7--7--7--|
A|--5--5--5--5--5--5--5--5--|--5--5--5--5--7--7--|--9--9--9--9--9--9--9--9--|--7--7--7--7--7--7--7--7--|
D|--5--5--5--5--5--5--5--5--|--5--5--5--5--7--7--|--9--9--9--9--9--9--9--9--|--7--7--7--7--7--7--7--7--|

[Fill] Guitar 1:
"That Every Promise..."
e|-------5-------|-----5--|
B|--3-------2/3--|--3-----|
G|---------------|--------|
D|---------------|--------|
A|---------------|--------|
D|---------------|--------|

[Fill] Guitar 2:
"That Every Promise..."
e|-------|
B|-------|
G|-------|
D|--0----|
A|--0----|
D|--0----|

[Chorus] Guitar 1:
"Why Should I Stick Around?"
e|-----5--------|-----5--------|-----5--------|-----5--------|
B|--3------2/3--|--3------2/3--|--3------2/3--|--3------2/3--|
G|--------------|--------------|--------------|--------------|
D|--------------|--------------|--------------|--------------|
A|--------------|--------------|--------------|--------------|
D|--------------|--------------|--------------|--------------|(x2)

[Chorus] Guitar 2:
"Why Should I Stick Around?"
e|----------------------|----------------------|---------------------|---------------------|
B|----------------------|----------------------|---------------------|---------------------|
G|----------------------|----------------------|---------------------|---------------------|
D|--5---5--5--5--5--5---|--5---5--5--5--5--5---|--9---9--9--9--9--9--|--7---7--7--7--7--7--|
A|--5---5--5--5--5--5---|--5---5--5--5--5--5---|--9---9--9--9--9--9--|--7---7--7--7--7--7--|
D|--5---5--5--5--5--5---|--5---5--5--5--5--5---|--9---9--9--9--9--9--|--7---7--7--7--7--7--|(x2)

[Main Riff] Guitar 1:
e|---------------------------------------|--------------------------------------------|
B|---------------------------------------|--------------------------------------------|
G|--16--16--14--11/12\11---7--7--7--7/9--|--16--16--14--11/12\11---19--19--19--19\18--|
D|---x---x---x---x--x-x----x--x--x--x-x--|---x---x---x---x--x-x-----x---x---x---x--x--|
A|--14--14--12---9/10\9----5--5--5--5/7--|--14--14--12---9/10\9----17--17--17--17\16--|
D|---------------------------------------|--------------------------------------------|(x2)

[Main Riff] Guitar 2:
e|--------------------------------------|-----------------------------------------|
B|--------------------------------------|-----------------------------------------|
G|--------------------------------------|-----------------------------------------|
D|--5--5--5---5--5--5---5--5--5---7--7--|--9--9--9---9--9--9---9--9--9---4--4--4--|
A|--5--5--5---5--5--5---5--5--5---7--7--|--9--9--9---9--9--9---9--9--9---4--4--4--|
D|--5--5--5---5--5--5---5--5--5---7--7--|--9--9--9---9--9--9---9--9--9---4--4--4--|

e|--------------------------------------|-----------------------------------------|
B|--------------------------------------|-----------------------------------------|
G|--------------------------------------|-----------------------------------------|
D|--5--5--5---5--5--5---5--5--5---7--7--|--9--9--9---9--9--9---7--7--7---7--7--7--|
A|--5--5--5---5--5--5---5--5--5---7--7--|--9--9--9---9--9--9---7--7--7---7--7--7--|
D|--5--5--5---5--5--5---5--5--5---7--7--|--9--9--9---9--9--9---7--7--7---7--7--7--|

[Bridge] Guitar 1:
"Seems All I've Known Is Hurt..."
e|-------0-----|-------0-----|--5-----2--0--|--5-----5--0-----|
B|--3-------3--|--3-------3--|--3-----------|--3-----------3--|
G|--2----------|--2----------|--2-----------|--2--------------|
D|--0----------|--0----------|--------------|-----------------|
A|-------------|-------------|--------------|-----------------|
D|-------------|-------------|--------------|-----------------|(x4)

e|-----5-----|-----5-----|-----5-----|-----5-----|
B|--3-----3--|--3-----3--|--3-----3--|--3-----3--|
G|-----------|-----------|-----------|-----------|
D|-----------|-----------|-----------|-----------|
A|-----------|-----------|-----------|-----------|
D|-----------|-----------|-----------|-----------|(x2)

[Bridge] Guitar 2:
"Seems All I've Known Is What..."
e|-------|-------|-------|-------|
B|--3----|--3----|--3----|--2----|
G|--2----|--2----|--4----|--2----|
D|--0----|--0----|--4----|--2----|
A|--0----|--0----|--2----|--0----|
D|--0----|--0----|-------|-------|(x4)

e|--------------------------|--------------------------|--------------------------|--------------------------|
B|--------------------------|--------------------------|--------------------------|--------------------------|
G|--------------------------|--------------------------|--------------------------|--------------------------|
D|--0--0--0--0--0--0--0--0--|--0--0--0--0--0--0--0--0--|--9--9--9--9--9--9--9--9--|--7--7--7--7--7--7--7--7--|
A|--0--0--0--0--0--0--0--0--|--0--0--0--0--0--0--0--0--|--9--9--9--9--9--9--9--9--|--7--7--7--7--7--7--7--7--|
D|--0--0--0--0--0--0--0--0--|--0--0--0--0--0--0--0--0--|--9--9--9--9--9--9--9--9--|--7--7--7--7--7--7--7--7--|

e|--------------------------|--------------------------|--------------------------|-----|
B|--------------------------|--------------------------|--------------------------|-----|
G|--------------------------|--------------------------|--------------------------|-----|
D|--0--0--0--0--0--0--0--0--|--0--0--0--0--0--0--0--0--|--9--9--9--9--9--9--9--9--|--7--|
A|--0--0--0--0--0--0--0--0--|--0--0--0--0--0--0--0--0--|--9--9--9--9--9--9--9--9--|--7--|
D|--0--0--0--0--0--0--0--0--|--0--0--0--0--0--0--0--0--|--9--9--9--9--9--9--9--9--|--7--|

[Bridge] Guitar 3:
"Seems All I've Known Is What..."
e|-----------------------|
B|--------3--------3-----|
G|-----2--------2-----2--|
D|--0--------0-----------|
A|-----------------------|
D|-----------------------|(x24)

[Breakdown] Guitar 1:
"Can Anyone Fall Back On Love?"
e|-----5--------|-----5--------|-----5--------|-----5--------|
B|--3------2/3--|--3------2/3--|--3------2/3--|--3------2/3--|
G|--------------|--------------|--------------|--------------|
D|--------------|--------------|--------------|--------------|
A|--------------|--------------|--------------|--------------|
D|--------------|--------------|--------------|--------------|(x2)

[Breakdown] Guitar 2:
"Can Anyone Fall Back On Love?"
e|-----------------------|-----------------------|-------------------------|----------------------|
B|-----------------------|-----------------------|-------------------------|----------------------|
G|-----------------------|-----------------------|-------------------------|----------------------|
D|--5---5--5---5--5--5---|--5---5--5---5--5--5---|--9---9--9---9--9--9--9--|--7---7--7---7--7--7--|
A|--5---5--5---5--5--5---|--5---5--5---5--5--5---|--9---9--9---9--9--9--9--|--7---7--7---7--7--7--|
D|--5---5--5---5--5--5---|--5---5--5---5--5--5---|--9---9--9---9--9--9--9--|--7---7--7---7--7--7--|(x2)

[Final Chorus] Guitar 1:
"Why Should I Stick Around?"
e|-----5--------|-----5--------|-----5--------|-----5--------|
B|--3------2/3--|--3------2/3--|--3------2/3--|--3------2/3--|
G|--------------|--------------|--------------|--------------|
D|--------------|--------------|--------------|--------------|
A|--------------|--------------|--------------|--------------|
D|--------------|--------------|--------------|--------------|

e|-----5--------|-----5--------|-----5--------|--5--|
B|--3------2/3--|--3------2/3--|--3------2/3--|--3--|
G|--------------|--------------|--------------|-----|
D|--------------|--------------|--------------|-----|
A|--------------|--------------|--------------|-----|
D|--------------|--------------|--------------|-----|

[Final Chorus] Guitar 2:
"Why Should I Stick Around?"
e|--------------------------|--------------------------|--------------------------|--------------------------|
B|--------------------------|--------------------------|--------------------------|--------------------------|
G|--------------------------|--------------------------|--------------------------|--------------------------|
D|--5--5--5--5--5--5--5--5--|--5--5--5--5--5--5--5--5--|--9--9--9--9--9--9--9--9--|--7--7--7--7--7--7--7--7--|
A|--5--5--5--5--5--5--5--5--|--5--5--5--5--5--5--5--5--|--9--9--9--9--9--9--9--9--|--7--7--7--7--7--7--7--7--|
D|--5--5--5--5--5--5--5--5--|--5--5--5--5--5--5--5--5--|--9--9--9--9--9--9--9--9--|--7--7--7--7--7--7--7--7--|

e|--------------------------|--------------------------|-----------------|--------|
B|--------------------------|--------------------------|-----------------|--------|
G|--------------------------|--------------------------|-----------------|--------|
D|--5--5--5--5--5--5--5--5--|--5--5--5--5--5--5--5--5--|--9--9--x--x--x--|--7-----|
A|--5--5--5--5--5--5--5--5--|--5--5--5--5--5--5--5--5--|--9--9--x--x--x--|--7-----|
D|--5--5--5--5--5--5--5--5--|--5--5--5--5--5--5--5--5--|--9--9--x--x--x--|--7-----|            
Submit corrections

↑ Back to top | Tablatures and chords for acoustic guitar and electric guitar, ukulele, drums are parodies/interpretations of the original songs. You may use it for private study, scholarship, research or language learning purposes only