Home » A » As It Is »

As It Is - Soap Tabs

Artists:  A B C D E F G H I J K L M N O P Q R S T U V W X Y Z # 

Soap Tabs

(ver. 1) Click to play this song!
As It Is
[Prelude]Clean Chords [Guitar 1]:
D#|-------------------|----------------11--|
A#|--12-----10-----8--|--12-----10-----12--|
F#|--12-----12-----9--|--12-----12-----11--|
C#|--10-----10-----9--|--10-----10---------|
G#|-------------------|--------------------|
C#|-------------------|--------------------|

[Intro]Lead Chords[Guitar 1]:
D#|--7--7--7-----7--7--7-----7--7-----8--8--8-----7--7--7-----7--7--------|
A#|--8--8--8-----8--8--8-----8--8-----8--8--8-----7--7--7-----7--7--------|
F#|--9--9--9-----9--9--9-----9--9-----9--9--9-----8--8--8-----8--8--------|
C#|-----------------------------------------------------------------------|
A|-----------------------------------------------------------------------|
C#|-----------------------------------------------------------------------|

[Intro]Main Riff[Guitar 2]:
D#|--------------------------|-----------------------|-------------------------|-----------------------|
D#|--------------------------|-----------------------|-------------------------|-----------------------|
F#|--------------------------|-----------------------|-------------------------|-----------------------|
C#|--------------------------|-----------------------|-------------------------|-----------1--1--------|
G#|--------------2--2--------|-----------2--2--------|--2/3--3--3--3--3--3--2--|--2--2--2--------2--2--|
C#|--2--2--2--2--------2--2--|--2--2--2--------2--2--|-------------------------|-----------------------|

(No Guitar Verse 1)

[Pre Chorus]Clean Leads[Guitar 1]:
"Cause who I've been and who I'm not..."
D#|---------------------|------------------|--------------|
A#|--12-----------------|--15--------------|--12----------|
F#|------12--11--12-----|------12--11--12--|------12--14--|
C#|---------------------|------------------|--------------|
G#|---------------------|------------------|--------------|
C#|---------------------|------------------|--------------|

[Verse 2]Lead Chords[Guitar 1]:
"This will only take a lifetime..."
D#|--7--7--7-----7--7--7-----7--7-----8--8--8-----7--7--7-----7--7--------|
D#|--8--8--8-----8--8--8-----8--8-----8--8--8-----7--7--7-----7--7--------|
F#|--9--9--9-----9--9--9-----9--9-----9--9--9-----8--8--8-----8--8--------|
C#|-----------------------------------------------------------------------|
G#|-----------------------------------------------------------------------|
C#|-----------------------------------------------------------------------|

[Pre Chorus]Main Riff[Guitar 2]:
"Cause who you've been and who you're not..."
D#|--------------------------|-----------------------|-------------------------|-----------------------|
A#|--------------------------|-----------------------|-------------------------|-----------------------|
F#|--------------------------|-----------------------|-------------------------|-----------------------|
C#|--------------------------|-----------------------|-------------------------|-----------1--1--------|
G#|--------------2--2--------|-----------2--2--------|--2/3--3--3--3--3--3--2--|--2--2--2--------2--2--|
C#|--2--2--2--2--------2--2--|--2--2--2--------2--2--|-------------------------|-----------------------|


[Pre Chorus]Clean Leads[Guitar 1]:
"Cause who you've been and who you're not..."
D#|---------------------|------------------|--------------|
A#|--12-----------------|--15--------------|--12----------|
F#|------12--11--12-----|------12--11--12--|------12--14--|
C#|---------------------|------------------|--------------|
G#|---------------------|------------------|--------------|
C#|---------------------|------------------|--------------|


[Chorus]Rhythm Chords(Guitar 2)(Each Chord listed is played 4 times) 
"You sing a shallow song with every wasted breath..."
D#|--------------------------|--------------------------------|
A#|--------------------------|--------------------------------|
F#|--5--5--5-----------------|--5--5--5-----------2--2--------|
C#|--5--5--5--0--2--2--0--0--|--5--5--5--0--2--2--2--2--------|
G#|--3--3--3--0--2--2--0--0--|--3--3--3--0--2--2--0--0--------|
C#|-----------0--2--2--0--0--|-----------0--2--2--------------|


[Chorus]Lead(Guitar 1):
"You sing a shallow song with every wasted breath..."
D#|--12--12--12--14--15--15--14--|--12--12--12--14--15--17--|
A#|------------------------------|--------------------------|
F#|------------------------------|--------------------------|
C#|------------------------------|--------------------------|
G#|------------------------------|--------------------------|
C#|------------------------------|--------------------------|

D#|--12--12--12--14--15--15--14--|--12--12--12--14--15--11--|
A#|------------------------------|--------------------------|
F#|------------------------------|--------------------------|
C#|------------------------------|--------------------------|
G#|------------------------------|--------------------------|
C#|------------------------------|--------------------------|

[Post-Chorus]Lead(Guitar 1):
D#|--19----------|
A#|------20--19--|
F#|--------------|
C#|--------------|
G#|--------------|
C#|--------------|

[Post-Chorus]Clean Chords(Guitar 2]:
D#|--7-----8-----7--|
A#|--8-----8-----7--|
F#|--9-----9-----8--|
C#|-----------------|
G#|-----------------|
C#|-----------------|

[Verse 3]Clean Chords(Guitar 2):
"I'm as tragic as I make it..."
D#|--7-----8-----7--|
A#|--8-----8-----7--|
F#|--9-----9-----8--|
C#|-----------------|
G#|-----------------|
C#|-----------------|

[Verse 3 - Part 2]Lead Chords[Guitar 1]:
"That's the problem that you have here..."
D#|--7--7--7-----7--7--7-----7--7-----8--8--8-----7--7--7-----7--7--------|
A#|--8--8--8-----8--8--8-----8--8-----8--8--8-----7--7--7-----7--7--------|
F#|--9--9--9-----9--9--9-----9--9-----9--9--9-----8--8--8-----8--8--------|
C#|-----------------------------------------------------------------------|
G#|-----------------------------------------------------------------------|
C#|-----------------------------------------------------------------------|

[Pre Chorus]Main Riff[Guitar 2]:
"'Cause who you've been and who you're not..."
D#|--------------------------|-----------------------|-------------------------|-----------------------|
A#|--------------------------|-----------------------|-------------------------|-----------------------|
F#|--------------------------|-----------------------|-------------------------|-----------------------|
C#|--------------------------|-----------------------|-------------------------|-----------1--1--------|
G#|--------------2--2--------|-----------2--2--------|--2/3--3--3--3--3--3--2--|--2--2--2--------2--2--|
C#|--2--2--2--2--------2--2--|--2--2--2--------2--2--|-------------------------|-----------------------|


[Pre Chorus]Clean Leads[Guitar 1]:
"'Cause who you've been and who you're not..."
D#|---------------------|------------------|--------------|
A#|--12-----------------|--15--------------|--12----------|
F#|------12--11--12-----|------12--11--12--|------12--14--|
C#|---------------------|------------------|--------------|
G#|---------------------|------------------|--------------|
C#|---------------------|------------------|--------------|

[Chorus]Rhythm Chords(Guitar 2)(Each Chord listed is played 4 times) 
"You sing a shallow song with every wasted breath..."
D#|--------------------------|--------------------------------|
A#|--------------------------|--------------------------------|
F#|--5--5--5-----------------|--5--5--5-----------2--2--------|
C#|--5--5--5--0--2--2--0--0--|--5--5--5--0--2--2--2--2--------|
G#|--3--3--3--0--2--2--0--0--|--3--3--3--0--2--2--0--0--------|
C#|-----------0--2--2--0--0--|-----------0--2--2--------------|


[Chorus]Lead(Guitar 1):
"You sing a shallow song with every wasted breath..."
D#|--12--12--12--14--15--15--14--|--12--12--12--14--15--17--|
A#|------------------------------|--------------------------|
F#|------------------------------|--------------------------|
C#|------------------------------|--------------------------|
G#|------------------------------|--------------------------|
C#|------------------------------|--------------------------|

D#|--12--12--12--14--15--15--14--|--12--12--12--14--15--11--|
A#|------------------------------|--------------------------|
F#|------------------------------|--------------------------|
C#|------------------------------|--------------------------|
G#|------------------------------|--------------------------|
C#|------------------------------|--------------------------|

[Bridge] Solo (Guitar 1]:
D#|---------------------------------------|------------------------------------|
A#|---------------------------------------|----------------10------10--13--12--|
F#|--16-----17--14-----16--12-----14--11--|--8--9--11--12------12--------------|
C#|--x------x---x------x---x------x---x---|------------------------------------|
G#|--14-----15--12-----14--10-----12--9---|------------------------------------|
C#|---------------------------------------|------------------------------------|

[Bridge] Chords (Guitar 2]:
D#|--------------------------|---------------------------|
A#|--------------------------|---------------------------|
F#|--------------5--5--------|--------------5--5---------|
C#|--2--2--1--1--5--5--5--9--|--2--2--1--1--5--5--5--11--|
G#|--2--2--1--1--3--3--5--9--|--2--2--1--1--3--3--5--11--|
C#|--2--2--1--1--------5--9--|--2--2--1--1--------5--11--|

[Breakdown]Clean Chords [Guitar 1]:
D#|-------------------|
A#|--12-----10-----8--|
F#|--12-----12-----9--|
C#|--10-----10-----9--|
G#|-------------------|
C#|-------------------|

[Breakdowm]Clean Lead(Guitar 1):
"You sing a shallow song..."
D#|--19----------|--19----------|
A#|------19--20--|------19--17--|
F#|--------------|--------------|
C#|--------------|--------------|
G#|--------------|--------------|
C#|--------------|--------------|
            
Submit corrections

↑ Back to top | Tablatures and chords for acoustic guitar and electric guitar, ukulele, drums are parodies/interpretations of the original songs. You may use it for private study, scholarship, research or language learning purposes only