Home » A » As It Is »

As It Is - Pretty Little Distance Tabs

Artists:  A B C D E F G H I J K L M N O P Q R S T U V W X Y Z # 

Pretty Little Distance Tabs

(ver. 1) Click to play this song!
As It Is
[Intro]
(Guitar 1):
(You'll want to barre your first finger on the 7th fret for this part)
E|--------------------------------------------------------|
B|--------7--9-----------7--9--------------7--------------|
G|-----9--------------9--------------9-----------9--8--9--|
D|--------------------------------7-----7-----7-----------|
A|--7-----------------------------------------------------|
E|-----------------7--------------------------------------|

[Verse Rhythm Part 1]
(Guitar 2):
(The second chord of the second part is not a mistake)
E|-----------------------|-----------------------------------|
B|-----------------------|--------4--4-----------------------|
G|--------4--4-----2--2--|--------4--4-----2--2--------------|
D|--2-----4--4-----2--2--|--2-----2--2-----2--2-----6/7\6----|
A|--2-----2--2-----0--0--|--2-----2--2-----0--0-----x-x-x----|
E|--0--------------------|--0-----------------------4/5\4----|

[Verse Rhythm Part 2]
(Guitar 2):
E|-----------------------|--------------------------------------------------|
B|-----------------------|--------------------------------------------------|
G|--------4--4-----2--2--|--------------------------------------------------|
D|--2-----4--4-----2--2--|--4--4-----4--4-----4--4-----7--7--7--7--7--7--7--|
A|--2-----2--2-----0--0--|--4--4-----4--4-----4--4-----7--7--7--7--7--7--7--|
E|--0--------------------|--2--2-----2--2-----2--2-----5--5--5--5--5--5--5--|

[Verse Lead]
(Guitar 1):
(Play the second part after playing the first part 3 times)
E|--------------------------------------------------------|-----------------------------------------------|
B|--------7--9-----------7--9--------------7--------------|-----------7-----------------------7-----------|
G|-----9--------------9--------------9-----------9--8--9--|-----9--------9-----9--------9--------9--8--9--|
D|--------------------------------7-----7-----7-----------|--9-----9--------9--------7-----7--------------|
A|--7-----------------------------------------------------|-----------------------------------------------|
E|-----------------7--------------------------------------|-----------------------------------------------|

[Chorus Chords]
(Both Guitars):
E|--------------------------|--------------------------|
B|--------------------------|--------------------------|
G|--9--9-----8--8-----6--6--|--------------------------|
D|--9--9-----9--9-----6--6--|--6--6-----7--7-----9--9--|
A|--7--7-----6--6-----4--4--|--6--6-----7--7-----9--9--|
E|--------------------------|--4--4-----5--5-----7--7--|

[Bridge Chords]
(Both Guitars):
E|-----------------------|
B|-----------------------|
G|--------------6-----4--|
D|--4-----7-----6-----4--|
A|--4-----7-----4-----2--|
E|--2-----5--------------|

[Solo Part 1]
(Guitar 1):
E|-----------------------------------|-------------------|
B|--5--5--5--5--5--5--5--5--4--2--0--|----------2-----4--|
G|-----------------------------------|--1/2--------2--4--|
D|-----------------------------------|-------2-----------|
A|-----------------------------------|-------------------|
E|-----------------------------------|-------------------|

[Solo Part 2]
(Guitar 1):
E|--4--5--7--|--12--11------12--11------12--11------12--11------|-----------7--------|
B|-----------|----------12----------12----------12----------12--|--5--7--9-----9--7--|
G|-----------|--------------------------------------------------|--------------------|
D|-----------|--------------------------------------------------|--------------------|
A|-----------|--------------------------------------------------|--------------------|
E|-----------|--------------------------------------------------|--------------------|

[Clean Breakdown]
(Guitar 1):
E|--4-----2-----0-----0-----0-----0--|--4-----0-----2--|
B|-----0-----0-----0-----0-----0-----|-----0-----0-----|
G|-----------------------------------|-----------------|
D|-----------------------------------|-----------------|
A|-----------------------------------|-----------------|
E|-----------------------------------------------------|
            
Submit corrections

↑ Back to top | Tablatures and chords for acoustic guitar and electric guitar, ukulele, drums are parodies/interpretations of the original songs. You may use it for private study, scholarship, research or language learning purposes only