Home » A » As It Is »

As It Is - No Way Out Tabs

Artists:  A B C D E F G H I J K L M N O P Q R S T U V W X Y Z # 

No Way Out Tabs

(ver. 1) Click to play this song!
As It Is
[Verse 1]
(Clean Riff)
(Guitar 1)
"Inside as the rain came pouring down..."
D|---------------------------|-----------------------------|------------------------------|
A|------------10-------------|--------------8--------------|--------------13--------------|
F|--------10------10-----10--|----------10-----10------10--|----------10------10------10--|
C|--8--8--------------8------|--10--10-------------10------|--12--12--------------12------|
G|---------------------------|-----------------------------|------------------------------|
C|---------------------------|-----------------------------|------------------------------|

D|----------------------------------|
A|--------------13------------------|
F|----------10------10--10------10--|
C|--12--12------------------12------|
G|----------------------------------|
C|----------------------------------|

(Clean Riff)
(Guitar 1)
"It can't wash away all this hurt that haunts me now..."
D|---------------------------|-----------------------------|----------------------------------|
A|------------10-------------|--------------8--------------|--------------13--------------13--|
F|--------10------10-----10--|----------10-----10------10--|----------10------10------10--10--|
C|--8--8--------------8------|--10--10-------------10------|--12--12--------------12------12--|
G|---------------------------|-----------------------------|----------------------------------|
C|---------------------------|-----------------------------|----------------------------------|

[Verse 1 Part 2]
(Chords)
(Both Guitars)(x2)
"Inside as the rain came pouring down..."
D|--------------------------------------------------------------------------------------------------------|
A|--------------------------------------------------------------------------------------------------------|
F|--3--3--3--3--3--3--3-----5--5--5--5--5--5--5-----7--7--7--7--7--7--7-----7--7--7--7--7--7--7-----------|
C|--3--3--3--3--3--3--3-----5--5--5--5--5--5--5-----7--7--7--7--7--7--7-----7--7--7--7--7--7--7-----------|
G|--1--1--1--1--1--1--1-----3--3--3--3--3--3--3-----5--5--5--5--5--5--5-----5--5--5--5--5--5--5-----------|
C|--------------------------------------------------------------------------------------------------------|

[Transition]
(Clean Riff)
(Guitar 1)
D|------------------------------|
A|--------------13--------------|
F|------10----------10------10--|
C|--12------12----------12------|
G|------------------------------|
C|------------------------------|

[Chorus]
(Chords)
(Both Guitars)
(x2)
"I shut my eyes, but my world's still burning..."
D|--------------------------------------------------|(Each chord tabbed is played 4 times)
A|--------------------------------------------------|
F|-----------5--3--3--3--5--7--7--2--2--3--3--5--5--|
C|--3--3--3--5--3--3--3--5--7--7--2--2--3--3--5--5--|
G|--3--3--3--3--1--1--1--3--5--5--0--0--1--1--3--3--|
C|--3--3--3-----------------------------------------|

[Chorus Part 2]
(Riff)
(Guitar 1)
(x4)
"I shut my eyes, but my world's still burning..."
D|------12--13------12--13------12--13------12--13--------------|
A|--13----------13----------13----------13----------10--10------|
F|----------------------------------------------------------10--|
C|--------------------------------------------------------------|
G|--------------------------------------------------------------|
C|--------------------------------------------------------------|

[Post-Chorus]
(Clean Riff)
(Guitar 1)
D|---------------------------|-----------------------------|----------------------------------|
A|------------10-------------|--------------8--------------|--------------13------------------|
F|--------10------10-----10--|----------10-----10------10--|----------10------10------10------|
C|--8--8--------------8------|--10--10-------------10------|--12--12--------------12------12--|
G|---------------------------|-----------------------------|----------------------------------|
C|---------------------------|-----------------------------|----------------------------------|

D|------------------------------|
A|----------13------------------|
F|------10------10--10------10--|
C|--12------------------12------|
G|------------------------------|
C|------------------------------|

[Verse 2]
(Clean Riff)
(Guitar 1)
"Choked up, but the pain came after all..."
D|--|--|----------------------------------|------------------------------|
A|--|--|--------------13------------------|----------13------------------|
F|--|--|----------10------10------10------|------10------10--10------10--|
C|--|--|--12--12--------------12------12--|--12------------------12------|
G|--|--|----------------------------------|------------------------------|
C|--|--|----------------------------------|------------------------------|

[Verse 2]
(Clean Riff)
(Guitar 1)
"I feel displaced in these once familiar walls..."
D|---------------------------|-----------------------------|------------------------------|
A|------------10-------------|--------------8--------------|--------------13--------------|
F|--------10------10-----10--|----------10-----10------10--|----------10------10------10--|
C|--8--8--------------8------|--10--10-------------10------|--12--12--------------12------|
G|---------------------------|-----------------------------|------------------------------|
C|---------------------------|-----------------------------|------------------------------|

D|----------------------------------|
A|--------------13------------------|
F|----------10------10--10------10--|
C|--12--12------------------12------|
G|----------------------------------|
C|----------------------------------|

[Verse 2 Part 2]
(Riff)
(Guitar 1)
(x2)
"Patient I fall with no end in sight..."
D|--8--8--8--8--8--8--8--8--3--3--3--3--5--5--5--5--------------------------------------------------|
A|--6--6--6--6--6--6--6--6--6--6--6--6--6--6--6--6--5--6--6--6--6--6--6--6--5--6--6--6--6--6--6--6--|
F|--------------------------------------------------5--5--5--5--5--5--5--5--5--5--5--5--5--5--5--5--|
C|--------------------------------------------------------------------------------------------------|
G|--------------------------------------------------------------------------------------------------|
C|--------------------------------------------------------------------------------------------------|

[Verse 2 Part 2]
(Palm Muted Chords)
(Guitar 1)
(x2)
"Patient I fall with no end in sight..."
D|--------------------------------------------------------------------------------------------------------|
A|--------------------------------------------------------------------------------------------------------|
F|--3--3--3--3--3--3--3-----5--5--5--5--5--5--5-----7--7--7--7--7--7--7-----7--7--7--7--7--7--7-----------|
C|--3--3--3--3--3--3--3-----5--5--5--5--5--5--5-----7--7--7--7--7--7--7-----7--7--7--7--7--7--7-----------|
G|--1--1--1--1--1--1--1-----3--3--3--3--3--3--3-----5--5--5--5--5--5--5-----5--5--5--5--5--5--5-----------|
C|--------------------------------------------------------------------------------------------------------|

[Chorus]
(Chords)
(Both Guitars)
(x2)
"I shut my eyes, but my world's still burning..."
D|--------------------------------------------------|(Each chord tabbed is played 4 times)
A|--------------------------------------------------|
F|-----------5--3--3--3--5--7--7--2--2--3--3--5--5--|
C|--3--3--3--5--3--3--3--5--7--7--2--2--3--3--5--5--|
G|--3--3--3--3--1--1--1--3--5--5--0--0--1--1--3--3--|
C|--3--3--3-----------------------------------------|

[Chorus Part 2]
(Riff)
(Guitar 1)
(x4)
"I shut my eyes, but my world's still burning..."
D|------12--13------12--13------12--13------12--13--------------|
A|--13----------13----------13----------13----------10--10------|
F|----------------------------------------------------------10--|
C|--------------------------------------------------------------|
G|--------------------------------------------------------------|
C|--------------------------------------------------------------|

[Breakdown]
(Riff)
(Both Guitars)
(x8)
"And as I exhale out the pain..."
D|--------------------------------------------------|
A|--------------------------------------------------|
F|--------------------5--5--5-----------------------|
C|--3--3--3--0--0--0--5--5--5--0--0--0--5--5--5--5--|
G|--3--3--3--0--0--0--3--3--3--0--0--0--5--5--5--5--|
C|--3--3--3--0--0--0-----------0--0--0--5--5--5--5--|

[Transition]
(Clean Riff)
(Guitar 1)
"And I know that I f**ked up..."
D|---------------------------|-----------------------------|----------------------------------|
A|------------10-------------|--------------8--------------|--------------13--------------13--|
F|--------10------10-----10--|----------10-----10------10--|----------10------10------10--10--|
C|--8--8--------------8------|--10--10-------------10------|--12--12--------------12------12--|
G|---------------------------|-----------------------------|----------------------------------|
C|---------------------------|-----------------------------|----------------------------------|

[Stripped Chorus]
(Chords)
(Guitar 2)
"I shut my eyes, but my world's still burning..."
D|--------------------------------------------------------------------------------|
A|--------------------------------------------------------------------------------|
F|----------3--3----7--7--2--2----3--3--3--3--3--3--3--3--5--5--5--5--5--5--5--5--|
C|--3--3----3--3----7--7--2--2----3--3--3--3--3--3--3--3--5--5--5--5--5--5--5--5--|
G|--3--3----1--1----5--5--0--0----1--1--1--1--1--1--1--1--3--3--3--3--3--3--3--3--|
C|--3--3--------------------------------------------------------------------------|

[Stripped Chorus]
(Riff)
(Guitar 1)
"I shut my eyes, but my world's still burning..."
D|------12--13------12--13------12--13------12--13--------------|
A|--13----------13----------13----------13----------10--10------|
F|----------------------------------------------------------10--|
C|--------------------------------------------------------------|
G|--------------------------------------------------------------|
C|--------------------------------------------------------------|

[Chorus]
(Chords)
(Both Guitars)
"I shut my eyes, but my world's still burning..."
D|--------------------------------------------------|(Each chord tabbed is played 4 times)
A|--------------------------------------------------|
F|-----------5--3--3--3--5--7--7--2--2--3--3--5--5--|
C|--3--3--3--5--3--3--3--5--7--7--2--2--3--3--5--5--|
G|--3--3--3--3--1--1--1--3--5--5--0--0--1--1--3--3--|
C|--3--3--3-----------------------------------------|

D|--------------------------|
A|--------------------------|
F|--7--7--2--2--3--3--5--5--|
C|--7--7--2--2--3--3--5--5--|
G|--5--5--0--0--1--1--3--3--|
C|--------------------------|

[Chorus]
(Riff)
(Guitar 1)
(x5)
"I shut my eyes, but my world's still burning..."
D|------12--13------12--13------12--13------12--13--------------|
A|--13----------13----------13----------13----------10--10------|
F|----------------------------------------------------------10--|
C|--------------------------------------------------------------|
G|--------------------------------------------------------------|
C|--------------------------------------------------------------|

[Breakdown]
(Riff)
(Both Guitars)
(x2)
D|--------------------------------------------------|
A|--------------------------------------------------|
F|--------------------5--5--5-----------------------|
C|--3--3--3--0--0--0--5--5--5--0--0--0--5--5--5--5--|
G|--3--3--3--0--0--0--3--3--3--0--0--0--5--5--5--5--|
C|--3--3--3--0--0--0-----------0--0--0--5--5--5--5--|

[End-On]
(Chord)
(Both Guitars)
D|-----|
A|-----|
F|-----|
C|--0--|
G|--0--|
C|--0--|            
Submit corrections

↑ Back to top | Tablatures and chords for acoustic guitar and electric guitar, ukulele, drums are parodies/interpretations of the original songs. You may use it for private study, scholarship, research or language learning purposes only