Home » A » Ashes Divide »

Ashes Divide - Denial Waits Tabs

Artists:  A B C D E F G H I J K L M N O P Q R S T U V W X Y Z # 

Denial Waits Tabs

(ver. 1) Click to play this song!
Ashes Divide

Tuning: C#, G#, E, B, F#, C#

Intro riff
                                     x2
C#|-----------------------------------|-----------------------------------|--------|
G#|-----------------------------------|-----------------------------------|--------|
E |-----------------------------------|-----------------------------------|--------|
B |------7-----7-----7------7---------|------7-----7-----7------7---------|--------|
F#|--8-8---8-8---8-8----8-8---8-8-7h8-|--5-5---5-5---5-5----5-5---5-5-2s5-|--5-5---|
C#|-----------------------------------|-----------------------------------|--------|

----------------------------|
----------------------------|
----------------------------|
7-----7-----7------7--------|
-5-5---5-5----5-5---5-5-----|
----------------------------|

Denial waits, it's here to claim me now...
As I crawl down to him, for a chance that you'll come around and lay down tonight.
But I'm left telling myself that everything will

    be   alright
C#|-------------|
G#|-------------|
E |-------------|
B |--7------7-7-|
F#|--5------5-5-|
C#|-------------|


      Run away from the way that you love me...
C#|----------------------------------------------|
G#|----------------------------------------------|
E |----------------------------------------------|
B |--11-11-11-11-11-11-11-11-11-11-11-11-11-11\\-|
F#|---9--9--9--9--9--9--9--9--9--9--9--9--9--9\\-|
C#|----------------------------------------------|


With no regrets just


     walk away, don't wanna hear that you're sorry
C#|------------------------------------------------|
G#|------------------------------------------------|
E |------------------------------------------------|
B |--7-7-7-7-7-7-7-7-7-7-7-7-7-7-7-7-7-7-7-7-7-7\\-|
F#|--5-5-5-5-5-5-5-5-5-5-5-5-5-5-5-5-5-5-5-5-5-5\\-|
C#|------------------------------------------------|




      stay away, I know you wanna destroy me.  Just save your breath 'cause
C#|---------------------------------------------------------------------------|
G#|---------------------------------------------------------------------------|
E |---------------------------------------------------------------------------|
B |--11-11-11-11-11-11-11-11-11-11-11-11-11-11-11-11-11-11-11-11-11-11-11-11--|
F#|---9--9--9--9--9--9--9--9--9--9--9--9--9--9--9--9--9--9--9--9--9--9--9--9--|
C#|---------------------------------------------------------------------------|


       I know.
C#|------------------------------------|
G#|------------------------------------|
E |------------------------------------|
B |--7-7-7-7-7-7-7-7-7-7-7-7-7-7-7-7/9-|
F#|--5-5-5-5-5-5-5-5-5-5-5-5-5-5-5-5/7-|
C#|------------------------------------|

If I just closed me eyes I'll still see your lips saying everything will be alright...
If I saw you right now, I'm embarressed to say I'd take you back and we could just
you never went away.

C#|--------------------------------------------------------------------|
G#|--------------------------------------------------------------------|
E |--14--x-14--x-14--x-14--x-14h16-14p13--13--x-13--x-13--x-13--x-13\\-|
B |--------------------------------------------------------------------|
F#|--------------------------------------------------------------------|
C#|--------------------------------------------------------------------|

C#|--------9-12-14---------9-12-14-14-14-|
G#|--12-14-----------12-14---------------|
E |--------------------------------------|x3
B |--------------------------------------|
F#|--------------------------------------|
C#|--------------------------------------|

C#|----------------------|
G#|--12-14--14-14-14-14b-|
E |----------------------|
B |----------------------|
F#|----------------------|
C#|----------------------|


      Run away from the way that you love me...
C#|--------------------------------------------|
G#|--------------------------------------------|
E |--------------------------------------------|
B |--11-11-11-11-11-11-11-11-11-11-11-11-11-11-|
F#|---9--9--9--9--9--9--9--9--9--9--9--9--9--9-|
C#|--------------------------------------------|

      with no regrets just
C#|--------------------------------------------|
G#|--------------------------------------------|
E |--------------------------------------------|
B |--14-14-14-14-14-14-14-14-14-14-14-14-14-14-|
F#|--12-12-12-12-12-12-12-12-12-12-12-12-12-12-|
C#|--------------------------------------------|

     walk away, don't wanna hear that you're sorry
C#|------------------------------------------------|
G#|------------------------------------------------|
E |------------------------------------------------|
B |--7-7-7-7-7-7-7-7-7-7-7-7-7-7-7-7-7-7-7-7-7-7---|
F#|--5-5-5-5-5-5-5-5-5-5-5-5-5-5-5-5-5-5-5-5-5-5---|
C#|------------------------------------------------|

     from words unsaid so
C#|------------------------------------------------|
G#|------------------------------------------------|
E |------------------------------------------------|
B |--4-4-4-4-4-4-4-4-4-4-4-4-4-4-4-4-4-4-4-4-4-4---|
F#|--2-2-2-2-2-2-2-2-2-2-2-2-2-2-2-2-2-2-2-2-2-2---|
C#|------------------------------------------------|


   stay away, I know you wanna destroy me
C#|--------------------------------------|
G#|--------------------------------------|
E |--------------------------------------|
B |--------------------------------------|
F#|--4-4-4-4-4-4-4-4-4-4-4-4-4-4-4-4-4-4-|
C#|--2-2-2-2-2-2-2-2-2-2-2-2-2-2-2-2-2-2-|


   just save you breath 'cause I know
C#|---------------------------------------------------|
G#|--3-3-3-3-3-3-3-3-3-3-3-3-3-3-3-3-3----------------|
E |--2-2-2-2-2-2-2-2-2-2-2-2-2-2-2-2-2----------------|
B |--0-0-0-0-0-0-0-0-0-0-0-0-0-0-0-0-0--4-4-4-4-4-4-4-|
F#|--0-0-0-0-0-0-0-0-0-0-0-0-0-0-0-0-0--2-2-2-2-2-2-2-|
C#|---------------------------------------------------|


                                     x2
C#|-----------------------------------|-----------------------------------|--------|
G#|-----------------------------------|-----------------------------------|--------|
E |-----------------------------------|-----------------------------------|--------|
B |------7-----7-----7------7---------|------7-----7-----7------7---------|--------|
F#|--8-8---8-8---8-8----8-8---8-8-7h8-|--5-5---5-5---5-5----5-5---5-5-2s5-|--5-5---|
C#|-----------------------------------|-----------------------------------|--------|

----------------------------|
----------------------------|
----------------------------|
7-----7-----7------7--------|
-5-5---5-5----5-5---5-5-----|
----------------------------|

    Denial waits it's here to claim you  now...
C#|--------------------------------------------------------------| x2
G#|--------------------------------------------------------------|
E |--------------------------------------------------------------|
B |--11-11-11-11-11-11-11-11-11-11-11----7-7-7-7-7-7-7-7-7-7-7-7-|
F#|---9--9--9--9--9--9--9--9--9--9--9----5-5-5-5-5-5-5-5-5-5-5-5-|
C#|--------------------------------------------------------------|


      Run away from the way that you love me...
C#|--------------------------------------------|
G#|--------------------------------------------|
E |--------------------------------------------|
B |--11-11-11-11-11-11-11-11-11-11-11-11-11-11-|
F#|---9--9--9--9--9--9--9--9--9--9--9--9--9--9-|
C#|--------------------------------------------|

      with no regrets just
C#|--------------------------------------------|
G#|--------------------------------------------|
E |--------------------------------------------|
B |--14-14-14-14-14-14-14-14-14-14-14-14-14-14-|
F#|--12-12-12-12-12-12-12-12-12-12-12-12-12-12-|
C#|--------------------------------------------|

     walk away, don't wanna hear that you're sorry
C#|------------------------------------------------|
G#|------------------------------------------------|
E |------------------------------------------------|
B |--7-7-7-7-7-7-7-7-7-7-7-7-7-7-7-7-7-7-7-7-7-7---|
F#|--5-5-5-5-5-5-5-5-5-5-5-5-5-5-5-5-5-5-5-5-5-5---|
C#|------------------------------------------------|

     from words unsaid
C#|------------------------------------------------|
G#|------------------------------------------------|
E |------------------------------------------------|
B |--4-4-4-4-4-4-4-4-4-4-4-4-4-4-4-4-4-4-4-4-4-4---|
F#|--2-2-2-2-2-2-2-2-2-2-2-2-2-2-2-2-2-2-2-2-2-2---|
C#|------------------------------------------------|


   Denial                         waits...
C#|--------------------------------------|
G#|--------------------------------------|
E |--------------------------------------|
B |--------------------------------------|
F#|--4-4-4-4-4-4-4-4-4-4-4-4-4-4-4-4-4-4-|
C#|--2-2-2-2-2-2-2-2-2-2-2-2-2-2-2-2-2-2-|


            Denial               waits...
C#|---------------------------------------------------|
G#|--3-3-3-3-3-3-3-3-3-3-3-3-3-3-3-3-3----------------|
E |--2-2-2-2-2-2-2-2-2-2-2-2-2-2-2-2-2----------------|
B |--0-0-0-0-0-0-0-0-0-0-0-0-0-0-0-0-0--4-4-4-4-4-4-4-|
F#|--0-0-0-0-0-0-0-0-0-0-0-0-0-0-0-0-0--2-2-2-2-2-2-2-|
C#|---------------------------------------------------|
            
Submit corrections

↑ Back to top | Tablatures and chords for acoustic guitar and electric guitar, ukulele, drums are parodies/interpretations of the original songs. You may use it for private study, scholarship, research or language learning purposes only