Home » A » Asg »

Asg - Horsewhipper Tabs

Artists:  A B C D E F G H I J K L M N O P Q R S T U V W X Y Z # 

Horsewhipper Tabs

(ver. 2) Click to play this song!
Asg
ok this is my first tab, but i'm sure the intro is correct, but i'm still working on the 
of the song.


Intro

|----------------------|----------------------|
|----------------------|----------------------|
|-----------8----------|-----------8----------|
|----10/8------10--10/8|----10/8-----10--10/8-|
|--------10------------|--------10------------|
|8-8-------------------|8-8-------------------|


|----------------------|----------------------|
|----------------------|----------------------|
|-----------8----------|11/10/8--11/10/8--10/8|
|----10/8-------10~--10|----------------------|
|--------10------------|----------------------|
|8-8-------------------|----------------------|


|----------------------|----------------------|
|----------------------|----------------------|
|-------------8--------|-----------8-----8~---|
|10--10/8-------10-----|10--10/8-----10-8-----|
|10--------10----------|10-------10-----------|
|8---------------------|8---------------------|


|----------------------|-----------------------------|
|----------------------|-----------------------------|
|-------------8--------|11/10/8--11/10/8--11/10/8 10~|
|10--10/8-------10~-10-|-----------------------------|
|10--------10----------|-----------------------------|
|8---------------------|-----------------------------|

Intro Part II (0:12)

|--------------|----------------|---------------|
|--------------|----------------|---------------|
|5-------------|5---------------|3--------------|
|5---------1---|5--------1-----1|3--------------|
|3--3-3-1----3-|3--3-1-----3-1--|1--3-1---1-1-1~|
|--------3-----|-------3--------|------3--------|

|--------------------|--------------|-----------------|
|--------------------|--------------|-----------------|
|3-------------------|5-------------|5----------------|
|3-------------------|5---------1---|5--------1-----1-|
|1-3-1---1-1-1-1-2-3-|3---3-1-----3-|3--3-1-----3-1---|
|------3-------------|--------3-----|-------3---------|

|---------------|--------------------|
|---------------|--------------------|
|3--------------|3-------------------|   PLAY TWICE
|3--------------|3-------------------|
|1-3-1---1-1-1~-|1-3-1---1-1-1-1-2-3-|
|------3--------|------3-------------|

Teach us not to play fair.....(0:39)
   (Picture the holes in your head....(1:15)
|--------------------|
|--------------------|
|--------------------|     PLAY TWICE
|10~---------8----6--|
|10~---------8----6--|
|8~----------6----4--|

(0:50)

And the..
time..............Rolls..........On.............You didnt have to...
(1:27)skies.......grow...........on.............The mirror has two)
|-3-3-3-3-3-3-3-3-6-6-6-6-6-6-6-6---------------------------------|
|--------------------------------4-4-4-4-4-4-4-4-6-6-6-6-6-6-6-6--|
|-----------------------------------------------------------------|
|-----------------------------------------------------------------|
|-----------------------------------------------------------------|
|-----------------------------------------------------------------|
|-----------------------------------------------------------------|

  Stay............so....................long.......YEAHHHHHH
   (Faced..........us...................all.........YEAHHHHHH)
|-3-3-3-3-3-3-3-3-6-6-6-6-8-8-8-11-11-11------------------------|
|--------------------------------------4-4-4-4-6-6-6-6-6-6-6-6--|
|---------------------------------------------------------------|
|---------------------------------------------------------------|
|---------------------------------------------------------------|
|---------------------------------------------------------------|
|---------------------------------------------------------------|

Basically the first two verses are the same, I'm working on the next part (2:30), but 
a little tricky.
            
Submit corrections

↑ Back to top | Tablatures and chords for acoustic guitar and electric guitar, ukulele, drums are parodies/interpretations of the original songs. You may use it for private study, scholarship, research or language learning purposes only