Home » A » As Cities Burn »

As Cities Burn - Daughter Tabs

Artists:  A B C D E F G H I J K L M N O P Q R S T U V W X Y Z # 

Daughter Tabs

(ver. 1) Click to play this song!
As Cities Burn


Standard Tuning - NO CAPO

chords used:

F#      - 244322
Ebm     - x68876
B       - x24442
C#      - x46664


         F#            Ebm
  It's a shame what I thought of her
         B            C#
  when I saw her that way.
             F#               Ebm
  It didn't change what you thought of her.
                   C#              Ebm
  She's been your daughter since she was made.

             F#                Ebm
  Since I was made, I've been leaving.
               B                       C#
  I'd say I'd change but I wouldn't believe it.
                  F#               Ebm
  It's 'cause my legs, they don't forget.
                   C#                     Ebm
  When they find a way out, they'll always take it.


  Ebm
  Oooh we don't 
  Ebm
  Nooh we don't 
  B
  we don't know how we got here,
      C#
  the way is overgrown.
  F#
  Oooh we don't 
  Ebm
  Nooh we don't 
  C#                           Ebm
  we don't know how we became this.


Chords during solo: F#,  Ebm,  B,  C#,  F#,  Ebm,  C#,  Ebm
                                                             
  F#            Ebm        B                 C#
  |     . .      |         |                 |
|-2-----2--------------------------------------------------|
|-2-----2---2h4--------------------------9-----------------|
|-3-2h3-----------2-1-----------4\3/10---------8\6---8\4/6-|
|-4-------------------4-------6--------9-------------------|
|-4---------------------4/6--------------------------------|
|-2-------2--------------------------------9---------------|


 F#                 Ebm      C#               Ebm
 |                   |       |                 |
|--------6----------------------------------------|
|--7--9--7--9--7--7-------------------------------|
|--6--6-----6--6--6h8--6p8----1/3-1-------1-------| < not sure about this 
|-----------------------------------4-1-4---4-0-1-|   but its close enough
|-------------------------------------------------|
|-------------------------------------------------|


            F#                Ebm
  She has a name but I don't have to know
                 B                 C#
  'cause all I'm after is all she has to show.
            F#               Ebm
  We cannot save, we can't even slow
               C#                Ebm
  our loss of innocence every little child has to grow.


 
  Ebm
  Oooh we don't 
  Ebm
  Nooh we don't 
  B
  we don't know how we got here,
      C#
  the way is overgrown.
  F#
  Oooh we don't 
  Ebm
  Nooh we don't 
  C#                           Ebm
  we don't know how we became this.
            
Submit corrections

↑ Back to top | Tablatures and chords for acoustic guitar and electric guitar, ukulele, drums are parodies/interpretations of the original songs. You may use it for private study, scholarship, research or language learning purposes only