Home » A » Army Of Anyone »

Army Of Anyone - Goodbye Tabs

Artists:  A B C D E F G H I J K L M N O P Q R S T U V W X Y Z # 

Goodbye Tabs

(ver. 1) Click to play this song!
Army Of Anyone


u strum up (can be ignored)
d strum down (can be ignored)
/ slide up
\ slide down
v vibrate
h hammer on
p pull off
b bend
r release bend


Tuning: Baritone Guitar (E E A D F# B)

----------|-------|--|---------|-------|--|---------|-------------------------|
----------|-------|--|---------|-------|--|---------|-------------------------|
----------|-------|--|---------|-------|--|---------|-------------------------|
----------|-9-9-9-|3x|-9-9-9---|-9-9-9-|3x|-9-9-9---|-------------------------|
----------|-9-8-9-|--|-9-8-9---|-9-8-9-|--|-9-8-9\--|-------------------------|
----------|-x-x-x-|--|-x-x-x---|-x-x-x-|--|-x-x-x---|-------------------------|
      Intro d u d

----------|-----------------------------------|--------------------------------|
----------|-----------------------------------|--------------------------------|
----------|-----------------------------------|--------------------------------|
----------|-----------------------------------|--------------------------------|
----------|-0-3-5-/8---5-5/10\9-9-9-9\3-3-3-3-|--------------------------------|
----------|-----------------------------------|--------------------------------|
      Verse d u d      u d   u d u d u d u d

----------|---------------------------------------|----------------------------|
----------|---------------------------------------|----------------------------|
----------|---------------------------------------|----------------------------|
----------|---------------------------------------|----------------------------|
----------|-0-3-5-/8---5-5/10\9-9-9-9/15-15-15-15-|----------------------------|
----------|---------------------------------------|----------------------------|


----------|------------------------------|-------------|--|--------------------|
----------|------------------------------|-------------|--|--------------------|
----------|------------------------------|-------------|--|--------------------|
----------|------------------------------|-------------|4x|--------------------|
----------|-0-3-5-/8----5-5/10\9-9-9-9-9/|-15-15-15-15-|--|--------------------|
----------|------------------------------|-------------|--|--------------------|


-------|----------------------------------------------------------------------|
-------|----------------------------------------------------------------------|
-------|---------------------7/10-10-10-10-10-10----------------------7/12-12-|
-------|---------------------7/10-10-10-10-10-10----------------------7/12-12-|
-------|-10/12-12-12-10-8-5-----------------------10/12-12-12-10-8-5----------|
-------|----------------------------------------------------------------------|
   Pre Chorus

-------------|----------------------------------------------------------------|
-------------|----------------------------------------------------------------|
-12-12-12-12-|----------------------------------------------------------------|
-12-12-12-12-|----------------------------------------------------------------|
-------------|----------------------------------------------------------------|
-------------|----------------------------------------------------------------|


---|--------------------------------------------------------------------------|
---|--------------------------------------------------------------------------|
---|---------------------7-/10-10-10-10-10-10----------------------7/12-12-12-|
---|---------------------7-/10-10-10-10-10-10----------------------7/12-12-12-|
---|-10/12-12-12-10-8-5------------------------10/12-12-12-10-8-5-------------|
---|--------------------------------------------------------------------------|
  Pre Chorus End

--------------------------------------|---------------------------------------|
--------------------------------------|---------------------------------------|
-12-12-12-12-12-12-12-12-12-12-12-12\-|---------------------------------------|
-12-12-12-12-12-12-12-12-12-12-12-12\-|---------------------------------------|
--------------------------------------|---------------------------------------|
--------------------------------------|---------------------------------------|


------|-----------------------------------------------------------------------|
------|-------5------------5-5------------5------------5-5------------3-------|
------|-6--7----6----6--7------6----5--7----5----5--7------5----4--5----4-----|
------|-----------7--------------7------------7--------------7------------5---|
------|-----------------------------------------------------------------------|
------|-----------------------------------------------------------------------|
   Chorus Let Ring

----------------------------|--|----------------|------------------------|----|
-------3-3------------3-----|--|--------3-3-----|--------3-3---3---3-----|----|
-4--5------4-4--2--5----2-2-|--|--2--5------2-2-|--2--5------2---2-------|----|
----------------------------|2x|----------------|------------------------|----|
----------------------------|--|----------------|------------------------|----|
----------------------------|--|----------------|------------------------|----|
                                  1st ending        2nd ending

------|-------|--|---------|-------|--------|-------|--|-----------|----------|
------|-------|--|---------|-------|--------|-------|--|-----------|----------|
------|-------|--|---------|-------|--------|-------|--|-----------|----------|
------|-9-9-9-|4x|-9-9-9---|-------|--------|-9-9-9-|3x|-9-9-9-9-9-|----------|
------|-9-8-9-|--|-9-8-9\--|-------|--------|-9-8-9-|--|-9-8-9-8-9-|----------|
------|-x-x-x-|--|-x-x-x---|-------|--------|-x-x-x-|--|-x-x-x-x-x-|----------|
                             Verse   Chorus

------|-7b8-7b8-r7--7b8r7b8r7-------15--14-------10h12vv---------11-----------|
------|------------------------13br--------17-15----------8b9r10----7b8r7--5--|
------|-----------------------------------------------------------------------|
------|-----------------------------------------------------------------------|
------|-----------------------------------------------------------------------|
------|-----------------------------------------------------------------------|
  Solo  d   d       d          d    d   d  d  d           d      u  d      d

------------------------------------------------------------------------------|
-3-4b5-r4------0-1p0-0-2p0-0-1p0-0-3p0-0-5p0-3-0--5-7-7b8r7-7--5-3--4b5r4b6---|
----------5vv-----------------------------------------------------------------|
------------------------------------------------------------------------------|
------------------------------------------------------------------------------|
------------------------------------------------------------------------------|
   d      d    d u   d u   d u   d u   d u   d u      d     d  d u  d

----------14-17-16b17--17--17--17--r16----------------------------------------|
-12/15-17------------------------------17-17vv-17-19-19b20r19-19vv-17-15--16b-|
------------------------------------------------------------------------------|
------------------------------------------------------------------------------|
------------------------------------------------------------------------------|
------------------------------------------------------------------------------|
       u  d  u  d      d   d   d       d  d

--------------------------------------|---------------------------------------|
-17r16b-17vv--7b8r7-5-3vv-5b6r5-3-----|---------------------------------------|
----------------------------------5---|---------------------------------------|
--------------------------------------|---------------------------------------|
--------------------------------------|---------------------------------------|
--------------------------------------|---------------------------------------|
              d     d d   d     d d

---------|--------------------14b15r14vv--14b15r14--12--10b11--16b17--17--17--|
---------|-15b16r15b16--14-16-------------------------------------------------|
---------|--------------------------------------------------------------------|
---------|--------------------------------------------------------------------|
---------|--------------------------------------------------------------------|
---------|--------------------------------------------------------------------|
  Out Solo d            d  u  d           d         u          d      d   d

-17-17-17--r-16--17-14--------------------------------------------------------|
-----------------------16-13----------3b4r3b5--3-5-7b8r7b8r7--3-1-3-3-1-3-1-3-|
-----------------------------14-12p9------------------------------------------|
------------------------------------------------------------------------------|
------------------------------------------------------------------------------|
------------------------------------------------------------------------------|
    d  d         d  u  d  d  d  u     d        d u d         not shure. .....

---------------------------------------------------9b10r9-------------|-------|
-3-1-3-3-1-3-1-3-1-3-3-1-3--3b4r3-3-5-7vv/8b9r8-----------------------|-------|
----------------------------------------------------------------------|-------|
----------------------------------------------------------------------|-------|
----------------------------------------------------------------------|-------|
----------------------------------------------------------------------|-------|
  ........................  d     d u d            ......

----|---------------|----5--------------------|-------------------------------|
----|---------------|----5--------------------|-------------------------------|
----|---------------|----6--------------------|-------------------------------|
----|---------------|----7--------------------|-------------------------------|
----|------------0--|----0--------------------|-------------------------------|
----|---------------|----0--------------------|-------------------------------|
      G1 Fades        G2 Background chord out 


--\--|-5-----5-7--5---5-----------------------------|--\----------------------|
--/--|-5------------8-------------------------------|--/----------------------|
--\--|-6-----------------6-7----4vv---------6-------|--\----------------------|
--/--|-7---------------------7------------5---------|--/----------------------|
--\--|-0----------------------------5-4vv-------7\0-|--\----------------------|
--/--|-0--------------------------------------------|--/----------------------|
      Live Jay Leno Outro                       Bass
            
Submit corrections

↑ Back to top | Tablatures and chords for acoustic guitar and electric guitar, ukulele, drums are parodies/interpretations of the original songs. You may use it for private study, scholarship, research or language learning purposes only