Home » A » Armor For Sleep »

Armor For Sleep - Remember To Feel Real Bass

Artists:  A B C D E F G H I J K L M N O P Q R S T U V W X Y Z # 

Remember To Feel Real Bass

(ver. 3) Click to play this song!
Armor For Sleep



Tunes to: Drop D

Intro
G|-----------------------------|
D|-----------------------------|x2
A|-----------------------------|
D|-333333-0-000000-2/8-8-8-----|

Verse x4
G|----------------------------------|
D|----------------------------------|
A|------------------333333333333333-|
D|-2222222-000000-2-----------------|

Pre-Chorus
G|-------------------------------------------|
D|-------------------------------------------|x2
A|-------------------------------------------|
D|-222222-9999999----------555555-44444444]--|

Chorus                                                            x2\
G|--------------------------------------------------------------------|
D|--------------------------------------------------------------------|
A|-4444444444444444------------------4444444444444444-----------------|
D|------------------333333333333333-------------------222333446677999-|

Post-Chorus
G|-------------------------------------------------------|
D|-------------------------------------------------------|
A|-------------------------------------------------------|
D|-2222-/10-10-10-10-10--2222-0-0000000-2/10-10-10-10-10-|

Verse x2
G|----------------------------------|
D|----------------------------------|
A|------------------333333333333333-|
D|-2222222-000000-2-----------------|

Pre-Chorus x2 (10 are tens) (Play bracketed notes first time only)
G|-------------------------------------------|
D|-------------------------------------------|
A|-------------------------------------------|
D|-222222-9-9-9-9-9-9-9-9--[555555-44444444]-|

Chorus x2
G|--------------------------------------------------------------------|
D|--------------------------------------------------------------------|
A|-3333333333333333------------------3333333333333333-----------------|
D|------------------2222222222222222-------------------222333446677999|


Bridge
G|---------------------------------------------------------------|
D|---------------------------------------------------------------|
A|-----4--5\--------------------4--5\-----------------4~----5~---|
D|-3~------4----7~-------3~----3~----4---   -7~-----3~----3~-----|
This was a little hard to tab.

Chorus x2
G|--------------------------------------------------------------------|
D|--------------------------------------------------------------------|
A|-3333333333333333------------------2222222222222222-----------------|
D|------------------1111111111111111------------------333444556779999-|

Outro
G|-----------------------------------------------------|
D|-----------------------------------------------------|
A|-----------------------------------------------------|
D|-3333-------2222-------3-5-5-9-9-3-4-5-9-9/4---------|
Not that sure about the end.

This was a pretty easy tab but some parts were hard to hear because of the guitar and 
drums playing at the same time, but that’s how bands are supposed to play.
Positive and negative comments are fine.
Thanks and have fun playing!


KEY
  / slide up

  \ Slide down

  h hammer-on

  p pull-off

  ~ Vibrato

  + Harmonic

  x Mute note
            
Submit corrections

↑ Back to top | Tablatures and chords for acoustic guitar and electric guitar, ukulele, drums are parodies/interpretations of the original songs. You may use it for private study, scholarship, research or language learning purposes only