» » »

Arizona - Oceans Away Tabs

Artists:  A B C D E F G H I J K L M N O P Q R S T U V W X Y Z # 

Oceans Away Tabs

(ver. 1) Click to play this song!
Arizona
 Rating:
4.3/5 (10 votes)


 Oceans Away  lessons Tabs too difficult? Try these video lessons and learn fast
 
                [Riff]
d|-------------------------|-------------------------|
A|---6-----4-----3-----3---|-----3---------4---------|
F|-----3-----3-----------3-|-------3---------3-------|
C|-------3-----3-----5-----|-5-3-----3---------3-----|
G|-------------------------|-------------6-----------|
D|-6-----------------------|-----------------------6-|

d|-------------------------|-------------------------|
A|-3---------3---------6---|-------------------------|
F|---3---------3---------5-|-------------------------|
C|-----3---------5---3-----|-3-----------------------|
G|-------------------------|-------------------------|
D|---------3---------------|-------------------------|

repeat through the song            
Submit corrections



        Oceans Away  lessons Hard to play? Try these video lessons and learn fast Oceans Away  lessons
        
↑ Back to top | Tablatures and chords for acoustic guitar and electric guitar, ukulele, drums are parodies/interpretations of the original songs. You may use it for private study, scholarship, research or language learning purposes only